  0
SECTION
  2
HEADER
  9
$ACADVER
  1
AC1006
  9
$AXISMODE
 70
     0
  9
$AXISUNIT
 10
0.0625
 20
0.0625
  9
$CECOLOR
 62
0
  9
$CELTYPE
  6
CONTINUOUS
  9
$CLAYER
  8
LAYER1
  9
$EXTMIN
 10
0
 20
0
  9
$EXTMAX
 10
13.7351
 20
10.8351
  9
$LIMMIN
 10
0
 20
0
  9
$LIMMAX
 10
13.7351
 20
10.8351
  9
$GRIDMODE
 70
     0
  9
$GRIDUNIT
 10
0.125
 20
0.125
  9
$MIRRTEXT
 70
     1
  9
$SNAPMODE
 70
     1
  9
$SNAPUNIT
 10
0.125
 20
0
  9
$SNAPSTYLE
 70
     0
  9
$SPLINESEGS
 70
     8
  9
$SPLINETYPE
 70
     6
  0
ENDSEC
  0
SECTION
  2
TABLES
  0TABLE  2VPORT 70     2  0VPORT  2*ACTIVE 70     0 100.0 200.0 111.0 211.0 1213.01087 224.5 130.0 230.0 141.0 241.0 150.0 250.0 160.0 260.0 361.0 170.0 270.0 370.0 409.0 412.891304 4250.0 430.0 440.0 500.0 510.0 71     0 72   100 73     1 74     1 75     0 76     0 77     0 78     0  0ENDTAB
  0
TABLE
  2
LTYPE
 70
     1
  0
LTYPE
  2
CONTINUOUS
 70
    64
  3
Descriptive Text
 72
    65
 73
     0
 40
0
  0
ENDTAB
  0
TABLE
  2
LAYER
 70
     1
  0
LAYER
  2
LAYER1
 70
     0
 62
     7
  6
CONTINUOUS
  0
ENDTAB
  0TABLE  2STYLE 70     1  0STYLE  2STANDARD 70     0 400.0 411.0 500.0 71     0 420.2  3txt  4  0ENDTAB
  0
TABLE
  2
VIEW
 70
     0
  0
ENDTAB
  0
TABLE
  2
UCS
 70
     0
  0
ENDTAB
  0
TABLE
  2
DWGMGR
 70
     0
  0
ENDTAB
  0
ENDSEC
  0
SECTION
  2
BLOCKS
  0
BLOCK
  8
LAYER1
  2
Group1
 70
     0
 10
0
 20
0
 30
0
  0
TEXT
  8
LAYER1
 62
     7
 10
9.8756
 20
1.6049
 30
0
 40
0.1389
  1
DIAMETER
 50
0
999
Geneva
  0
TEXT
  8
LAYER1
 62
     7
 10
10.0006
 20
1.8965
 30
0
 40
0.1389
  1
Metric
 50
0
999
Geneva
  0
ENDBLK
  8
LAYER1
  0
BLOCK
  8
LAYER1
  2
Group2
 70
     0
 10
0
 20
0
 30
0
  0
TEXT
  8
LAYER1
 62
     7
 10
0.5006
 20
1.8965
 30
0
 40
0.1389
  1
DIAMETER
 50
0
999
Geneva
  0
TEXT
  8
LAYER1
 62
     7
 10
0.6256
 20
2.2021
 30
0
 40
0.1389
  1
Metric
 50
0
999
Geneva
  0
ENDBLK
  8
LAYER1
  0
BLOCK
  8
LAYER1
  2
Group3
 70
     0
 10
0
 20
0
 30
0
  0
TEXT
  8
LAYER1
 62
     7
 10
0.1812
 20
0.1743
 30
0
 40
0.0833
  1
Scale 1:1 Printed at 70%
 50
0
999
Geneva
  0
TEXT
  8
LAYER1
 62
     7
 10
4.1673
 20
0.341
 30
0
 40
0.0833
  1
©1989,1990,1991,1992
 50
0
999
Geneva
  0
TEXT
  8
LAYER1
 62
     7
 10
4.0423
 20
0.1743
 30
0
 40
0.0833
  1
Advanced System Design, Inc.
 50
0
999
Geneva
  0
ENDBLK
  8
LAYER1
  0
BLOCK
  8
LAYER1
  2
Group4
 70
     0
 10
0
 20
0
 30
0
  0
TEXT
  8
LAYER1
 62
     7
 10
8.6395
 20
0.1743
 30
0
 40
0.0833
  1
Scale 1:1 Printed at 70%
 50
0
999
Geneva
  0
TEXT
  8
LAYER1
 62
     7
 10
12.6256
 20
0.341
 30
0
 40
0.0833
  1
©1989,1990,1991,1992
 50
0
999
Geneva
  0
TEXT
  8
LAYER1
 62
     7
 10
12.5006
 20
0.1743
 30
0
 40
0.0833
  1
Advanced System Design, Inc.
 50
0
999
Geneva
  0
ENDBLK
  8
LAYER1
  0
BLOCK
  8
LAYER1
  2
Group5
 70
     0
 10
0
 20
0
 30
0
  0
LINE
  8
LAYER1
  6
CONTINUOUS
 62
     7
 10
8.7222
 20
10.4878
 30
0
 11
13.5694
 21
10.4878
 31
0
  0
LINE
  8
LAYER1
  6
CONTINUOUS
 62
     7
 10
5.0139
 20
6.2517
 30
0
 11
5.4167
 21
6.2517
 31
0
  0
LINE
  8
LAYER1
  6
CONTINUOUS
 62
     7
 10
5.0556
 20
6.2239
 30
0
 11
5.375
 21
6.2239
 31
0
  0
LINE
  8
LAYER1
  6
CONTINUOUS
 62
     7
 10
5.0139
 20
6.1962
 30
0
 11
5.4167
 21
6.1962
 31
0
  0
LINE
  8
LAYER1
  6
CONTINUOUS
 62
     7
 10
5.0556
 20
6.1684
 30
0
 11
5.375
 21
6.1684
 31
0
  0
LINE
  8
LAYER1
  6
CONTINUOUS
 62
     7
 10
5.0139
 20
6.1406
 30
0
 11
5.4167
 21
6.1406
 31
0
  0
LINE
  8
LAYER1
  6
CONTINUOUS
 62
     7
 10
5.0556
 20
6.1128
 30
0
 11
5.375
 21
6.1128
 31
0
  0
LINE
  8
LAYER1
  6
CONTINUOUS
 62
     7
 10
5.0139
 20
6.0851
 30
0
 11
5.4167
 21
6.0851
 31
0
  0
LINE
  8
LAYER1
  6
CONTINUOUS
 62
     7
 10
5.0556
 20
6.0573
 30
0
 11
5.375
 21
6.0573
 31
0
  0
LINE
  8
LAYER1
  6
CONTINUOUS
 62
     7
 10
5.0139
 20
6.0156
 30
0
 11
5.4167
 21
6.0156
 31
0
  0
LINE
  8
LAYER1
  6
CONTINUOUS
 62
     7
 10
5.0556
 20
5.9878
 30
0
 11
5.375
 21
5.9878
 31
0
  0
LINE
  8
LAYER1
  6
CONTINUOUS
 62
     7
 10
5.0139
 20
5.9601
 30
0
 11
5.4167
 21
5.9601
 31
0
  0
LINE
  8
LAYER1
  6
CONTINUOUS
 62
     7
 10
5.0556
 20
5.9323
 30
0
 11
5.375
 21
5.9323
 31
0
  0
LINE
  8
LAYER1
  6
CONTINUOUS
 62
     7
 10
5.0139
 20
5.9045
 30
0
 11
5.4167
 21
5.9045
 31
0
  0
LINE
  8
LAYER1
  6
CONTINUOUS
 62
     7
 10
5.0556
 20
5.8767
 30
0
 11
5.375
 21
5.8767
 31
0
  0
LINE
  8
LAYER1
  6
CONTINUOUS
 62
     7
 10
5.0139
 20
5.8489
 30
0
 11
5.4167
 21
5.8489
 31
0
  0
LINE
  8
LAYER1
  6
CONTINUOUS
 62
     7
 10
5.0556
 20
5.8212
 30
0
 11
5.375
 21
5.8212
 31
0
  0
LINE
  8
LAYER1
  6
CONTINUOUS
 62
     7
 10
5.0139
 20
5.7795
 30
0
 11
5.4167
 21
5.7795
 31
0
  0
LINE
  8
LAYER1
  6
CONTINUOUS
 62
     7
 10
5.0556
 20
5.7517
 30
0
 11
5.375
 21
5.7517
 31
0
  0
LINE
  8
LAYER1
  6
CONTINUOUS
 62
     7
 10
5.0139
 20
5.7378
 30
0
 11
5.4167
 21
5.7378
 31
0
  0
LINE
  8
LAYER1
  6
CONTINUOUS
 62
     7
 10
5.0139
 20
6.2517
 30
0
 11
5.0417
 21
6.2934
 31
0
  0
LINE
  8
LAYER1
  6
CONTINUOUS
 62
     7
 10
5.4167
 20
6.2517
 30
0
 11
5.375
 21
6.2934
 31
0
  0
LINE
  8
LAYER1
  6
CONTINUOUS
 62
     7
 10
5.0417
 20
6.2934
 30
0
 11
5.375
 21
6.2934
 31
0
  0
LINE
  8
LAYER1
  6
CONTINUOUS
 62
     7
 10
5.0139
 20
5.7378
 30
0
 11
5.0139
 21
6.2517
 31
0
  0
ENDBLK
  8
LAYER1
  0
BLOCK
  8
LAYER1
  2
Group6
 70
     0
 10
0
 20
0
 30
0
  0
LINE
  8
LAYER1
  6
CONTINUOUS
 62
     7
 10
5.4167
 20
5.7378
 30
0
 11
5.4167
 21
6.2517
 31
0
  0
LINE
  8
LAYER1
  6
CONTINUOUS
 62
     7
 10
5.0139
 20
5.7378
 30
0
 11
4.8472
 21
5.5434
 31
0
  0
LINE
  8
LAYER1
  6
CONTINUOUS
 62
     7
 10
5.4167
 20
5.7378
 30
0
 11
5.5694
 21
5.5434
 31
0
  0
POLYLINE
  8
LAYER1
  6
CONTINUOUS
 62
     7
 66
     1
 70
     0
 40
0.0039
 41
0.0039
  0
VERTEX
  8
LAYER1
 10
5.1667
 20
5.4323
 30
0
 70
     0
  0
VERTEX
  8
LAYER1
 10
5.1667
 20
5.6406
 30
0
 70
     0
  0
VERTEX
  8
LAYER1
 10
5.2639
 20
5.6406
 30
0
 70
     0
  0
VERTEX
  8
LAYER1
 10
5.2639
 20
5.4323
 30
0
 70
     0
  0
SEQEND
  0
LINE
  8
LAYER1
  6
CONTINUOUS
 62
     7
 10
5.5694
 20
5.5434
 30
0
 11
5.2639
 21
5.5434
 31
0
  0
LINE
  8
LAYER1
  6
CONTINUOUS
 62
     7
 10
5.1667
 20
5.5434
 30
0
 11
4.8472
 21
5.5434
 31
0
  0
POLYLINE
  8
LAYER1
  6
CONTINUOUS
 62
     7
 66
     1
 70
     0
 40
0.0039
 41
0.0039
  0
VERTEX
  8
LAYER1
 10
5.1528
 20
5.4323
 30
0
 70
     0
  0
VERTEX
  8
LAYER1
 10
5.1111
 20
5.4323
 30
0
 70
     0
  0
VERTEX
  8
LAYER1
 10
5.0417
 20
5.4462
 30
0
 70
     0
  0
VERTEX
  8
LAYER1
 10
4.9583
 20
5.4739
 30
0
 70
     0
  0
VERTEX
  8
LAYER1
 10
4.8889
 20
5.5156
 30
0
 70
     0
  0
VERTEX
  8
LAYER1
 10
4.8472
 20
5.5434
 30
0
 70
     0
  0
SEQEND
  0
POLYLINE
  8
LAYER1
  6
CONTINUOUS
 62
     7
 66
     1
 70
     0
 40
0.0039
 41
0.0039
  0
VERTEX
  8
LAYER1
 10
5.5694
 20
5.5434
 30
0
 70
     0
  0
VERTEX
  8
LAYER1
 10
5.5278
 20
5.5156
 30
0
 70
     0
  0
VERTEX
  8
LAYER1
 10
5.4583
 20
5.4739
 30
0
 70
     0
  0
VERTEX
  8
LAYER1
 10
5.3889
 20
5.4462
 30
0
 70
     0
  0
VERTEX
  8
LAYER1
 10
5.3056
 20
5.4323
 30
0
 70
     0
  0
VERTEX
  8
LAYER1
 10
5.2778
 20
5.4323
 30
0
 70
     0
  0
SEQEND
  0
ENDBLK
  8
LAYER1
  0
BLOCK
  8
LAYER1
  2
Group7
 70
     0
 10
0
 20
0
 30
0
  0
INSERT
  8
LAYER1
  2
Group5
 10
0
 20
0
 30
0
  0
INSERT
  8
LAYER1
  2
Group6
 10
0
 20
0
 30
0
  0
ENDBLK
  8
LAYER1
  0
BLOCK
  8
LAYER1
  2
Group8
 70
     0
 10
0
 20
0
 30
0
  0
LINE
  8
LAYER1
  6
CONTINUOUS
 62
     7
 10
5.4306
 20
1.4184
 30
0
 11
4.9306
 21
0.9045
 31
0
  0
LINE
  8
LAYER1
  6
CONTINUOUS
 62
     7
 10
5.5139
 20
1.3351
 30
0
 11
5
 21
0.8351
 31
0
  0
POLYLINE
  8
LAYER1
  6
CONTINUOUS
 62
     7
 66
     1
 70
     0
 40
0.0039
 41
0.0039
  0
VERTEX
  8
LAYER1
 10
5.0694
 20
0.9045
 30
0
 70
     0
  0
VERTEX
  8
LAYER1
 10
5.0556
 20
0.9045
 30
0
 70
     0
  0
VERTEX
  8
LAYER1
 10
5.0417
 20
0.9184
 30
0
 70
     0
  0
VERTEX
  8
LAYER1
 10
5.0278
 20
0.9323
 30
0
 70
     0
  0
VERTEX
  8
LAYER1
 10
5.0139
 20
0.9462
 30
0
 70
     0
  0
VERTEX
  8
LAYER1
 10
5
 20
0.9601
 30
0
 70
     0
  0
VERTEX
  8
LAYER1
 10
4.9861
 20
0.9739
 30
0
 70
     0
  0
SEQEND
  0
POLYLINE
  8
LAYER1
  6
CONTINUOUS
 62
     7
 66
     1
 70
     0
 40
0.0039
 41
0.0039
  0
VERTEX
  8
LAYER1
 10
5.3611
 20
1.3489
 30
0
 70
     0
  0
VERTEX
  8
LAYER1
 10
5.375
 20
1.3351
 30
0
 70
     0
  0
VERTEX
  8
LAYER1
 10
5.4028
 20
1.3212
 30
0
 70
     0
  0
VERTEX
  8
LAYER1
 10
5.4028
 20
1.3212
 30
0
 70
     0
  0
VERTEX
  8
LAYER1
 10
5.4167
 20
1.3073
 30
0
 70
     0
  0
VERTEX
  8
LAYER1
 10
5.4444
 20
1.2795
 30
0
 70
     0
  0
VERTEX
  8
LAYER1
 10
5.4444
 20
1.2795
 30
0
 70
     0
  0
SEQEND
  0
POLYLINE
  8
LAYER1
  6
CONTINUOUS
 62
     7
 66
     1
 70
     0
 40
0.0039
 41
0.0039
  0
VERTEX
  8
LAYER1
 10
4.9306
 20
0.9045
 30
0
 70
     0
  0
VERTEX
  8
LAYER1
 10
4.9167
 20
0.9184
 30
0
 70
     0
  0
VERTEX
  8
LAYER1
 10
4.875
 20
0.9878
 30
0
 70
     0
  0
VERTEX
  8
LAYER1
 10
4.8611
 20
1.0295
 30
0
 70
     0
  0
VERTEX
  8
LAYER1
 10
4.8472
 20
1.0989
 30
0
 70
     0
  0
VERTEX
  8
LAYER1
 10
4.8472
 20
1.1267
 30
0
 70
     0
  0
VERTEX
  8
LAYER1
 10
4.8472
 20
1.1684
 30
0
 70
     0
  0
VERTEX
  8
LAYER1
 10
4.8611
 20
1.2378
 30
0
 70
     0
  0
VERTEX
  8
LAYER1
 10
4.8889
 20
1.2934
 30
0
 70
     0
  0
VERTEX
  8
LAYER1
 10
4.9306
 20
1.3489
 30
0
 70
     0
  0
VERTEX
  8
LAYER1
 10
4.9583
 20
1.3767
 30
0
 70
     0
  0
VERTEX
  8
LAYER1
 10
4.9861
 20
1.4045
 30
0
 70
     0
  0
VERTEX
  8
LAYER1
 10
5.0417
 20
1.4462
 30
0
 70
     0
  0
VERTEX
  8
LAYER1
 10
5.1111
 20
1.4739
 30
0
 70
     0
  0
VERTEX
  8
LAYER1
 10
5.1806
 20
1.4878
 30
0
 70
     0
  0
VERTEX
  8
LAYER1
 10
5.2083
 20
1.4878
 30
0
 70
     0
  0
VERTEX
  8
LAYER1
 10
5.2361
 20
1.4878
 30
0
 70
     0
  0
VERTEX
  8
LAYER1
 10
5.3056
 20
1.4739
 30
0
 70
     0
  0
VERTEX
  8
LAYER1
 10
5.3611
 20
1.4601
 30
0
 70
     0
  0
VERTEX
  8
LAYER1
 10
5.4167
 20
1.4323
 30
0
 70
     0
  0
VERTEX
  8
LAYER1
 10
5.4306
 20
1.4184
 30
0
 70
     0
  0
SEQEND
  0
POLYLINE
  8
LAYER1
  6
CONTINUOUS
 62
     7
 66
     1
 70
     0
 40
0.0039
 41
0.0039
  0
VERTEX
  8
LAYER1
 10
5.5139
 20
1.3351
 30
0
 70
     0
  0
VERTEX
  8
LAYER1
 10
5.5278
 20
1.3212
 30
0
 70
     0
  0
VERTEX
  8
LAYER1
 10
5.5556
 20
1.2795
 30
0
 70
     0
  0
VERTEX
  8
LAYER1
 10
5.5694
 20
1.2239
 30
0
 70
     0
  0
VERTEX
  8
LAYER1
 10
5.5833
 20
1.1545
 30
0
 70
     0
  0
VERTEX
  8
LAYER1
 10
5.5833
 20
1.1267
 30
0
 70
     0
  0
VERTEX
  8
LAYER1
 10
5.5833
 20
1.0851
 30
0
 70
     0
  0
VERTEX
  8
LAYER1
 10
5.5694
 20
1.0156
 30
0
 70
     0
  0
VERTEX
  8
LAYER1
 10
5.5417
 20
0.9601
 30
0
 70
     0
  0
VERTEX
  8
LAYER1
 10
5.5
 20
0.9045
 30
0
 70
     0
  0
VERTEX
  8
LAYER1
 10
5.4722
 20
0.8767
 30
0
 70
     0
  0
VERTEX
  8
LAYER1
 10
5.4444
 20
0.8489
 30
0
 70
     0
  0
VERTEX
  8
LAYER1
 10
5.3889
 20
0.8073
 30
0
 70
     0
  0
VERTEX
  8
LAYER1
 10
5.3194
 20
0.7795
 30
0
 70
     0
  0
VERTEX
  8
LAYER1
 10
5.25
 20
0.7656
 30
0
 70
     0
  0
VERTEX
  8
LAYER1
 10
5.2083
 20
0.7656
 30
0
 70
     0
  0
VERTEX
  8
LAYER1
 10
5.1806
 20
0.7656
 30
0
 70
     0
  0
VERTEX
  8
LAYER1
 10
5.125
 20
0.7795
 30
0
 70
     0
  0
VERTEX
  8
LAYER1
 10
5.0694
 20
0.7934
 30
0
 70
     0
  0
VERTEX
  8
LAYER1
 10
5.0139
 20
0.8212
 30
0
 70
     0
  0
VERTEX
  8
LAYER1
 10
5
 20
0.8351
 30
0
 70
     0
  0
SEQEND
  0
ENDBLK
  8
LAYER1
  0
BLOCK
  8
LAYER1
  2
Group9
 70
     0
 10
0
 20
0
 30
0
  0
POLYLINE
  8
LAYER1
  6
CONTINUOUS
 62
     7
 66
     1
 70
     0
 40
0.0039
 41
0.0039
  0
VERTEX
  8
LAYER1
 10
12.5417
 20
4.0295
 30
0
 70
     0
  0
VERTEX
  8
LAYER1
 10
12.8611
 20
4.0295
 30
0
 70
     0
  0
VERTEX
  8
LAYER1
 10
12.8333
 20
4.0434
 30
0
 70
     0
  0
SEQEND
  0
LINE
  8
LAYER1
  6
CONTINUOUS
 62
     7
 10
12.5833
 20
4.0434
 30
0
 11
12.8333
 21
4.0434
 31
0
  0
LINE
  8
LAYER1
  6
CONTINUOUS
 62
     7
 10
12.5417
 20
4.0295
 30
0
 11
12.5833
 21
4.0434
 31
0
  0
LINE
  8
LAYER1
  6
CONTINUOUS
 62
     7
 10
12.5694
 20
4.0017
 30
0
 11
12.8333
 21
4.0017
 31
0
  0
LINE
  8
LAYER1
  6
CONTINUOUS
 62
     7
 10
12.5417
 20
3.9739
 30
0
 11
12.8611
 21
3.9739
 31
0
  0
LINE
  8
LAYER1
  6
CONTINUOUS
 62
     7
 10
12.5694
 20
3.9462
 30
0
 11
12.8333
 21
3.9462
 31
0
  0
LINE
  8
LAYER1
  6
CONTINUOUS
 62
     7
 10
12.5417
 20
3.9323
 30
0
 11
12.8611
 21
3.9323
 31
0
  0
LINE
  8
LAYER1
  6
CONTINUOUS
 62
     7
 10
12.5694
 20
3.9045
 30
0
 11
12.8333
 21
3.9045
 31
0
  0
LINE
  8
LAYER1
  6
CONTINUOUS
 62
     7
 10
12.5417
 20
3.8767
 30
0
 11
12.8611
 21
3.8767
 31
0
  0
LINE
  8
LAYER1
  6
CONTINUOUS
 62
     7
 10
12.5694
 20
3.8489
 30
0
 11
12.8333
 21
3.8489
 31
0
  0
LINE
  8
LAYER1
  6
CONTINUOUS
 62
     7
 10
12.5417
 20
3.8351
 30
0
 11
12.8611
 21
3.8351
 31
0
  0
LINE
  8
LAYER1
  6
CONTINUOUS
 62
     7
 10
12.5694
 20
3.8073
 30
0
 11
12.8333
 21
3.8073
 31
0
  0
LINE
  8
LAYER1
  6
CONTINUOUS
 62
     7
 10
12.5417
 20
3.7795
 30
0
 11
12.8611
 21
3.7795
 31
0
  0
LINE
  8
LAYER1
  6
CONTINUOUS
 62
     7
 10
12.5694
 20
3.7517
 30
0
 11
12.8333
 21
3.7517
 31
0
  0
LINE
  8
LAYER1
  6
CONTINUOUS
 62
     7
 10
12.5417
 20
3.7378
 30
0
 11
12.8611
 21
3.7378
 31
0
  0
LINE
  8
LAYER1
  6
CONTINUOUS
 62
     7
 10
12.5694
 20
3.7101
 30
0
 11
12.8333
 21
3.7101
 31
0
  0
LINE
  8
LAYER1
  6
CONTINUOUS
 62
     7
 10
12.5417
 20
3.6823
 30
0
 11
12.8611
 21
3.6823
 31
0
  0
LINE
  8
LAYER1
  6
CONTINUOUS
 62
     7
 10
12.5694
 20
3.6545
 30
0
 11
12.8333
 21
3.6545
 31
0
  0
LINE
  8
LAYER1
  6
CONTINUOUS
 62
     7
 10
12.5417
 20
3.6406
 30
0
 11
12.8611
 21
3.6406
 31
0
  0
LINE
  8
LAYER1
  6
CONTINUOUS
 62
     7
 10
12.5694
 20
3.6128
 30
0
 11
12.8333
 21
3.6128
 31
0
  0
LINE
  8
LAYER1
  6
CONTINUOUS
 62
     7
 10
12.5417
 20
3.5851
 30
0
 11
12.8611
 21
3.5851
 31
0
  0
LINE
  8
LAYER1
  6
CONTINUOUS
 62
     7
 10
12.5694
 20
3.5573
 30
0
 11
12.8333
 21
3.5573
 31
0
  0
LINE
  8
LAYER1
  6
CONTINUOUS
 62
     7
 10
12.5417
 20
3.5434
 30
0
 11
12.8611
 21
3.5434
 31
0
  0
LINE
  8
LAYER1
  6
CONTINUOUS
 62
     7
 10
12.5694
 20
3.5156
 30
0
 11
12.8333
 21
3.5156
 31
0
  0
LINE
  8
LAYER1
  6
CONTINUOUS
 62
     7
 10
12.5417
 20
3.4878
 30
0
 11
12.8611
 21
3.4878
 31
0
  0
LINE
  8
LAYER1
  6
CONTINUOUS
 62
     7
 10
12.5694
 20
3.4601
 30
0
 11
12.8333
 21
3.4601
 31
0
  0
LINE
  8
LAYER1
  6
CONTINUOUS
 62
     7
 10
12.5417
 20
3.4462
 30
0
 11
12.8611
 21
3.4462
 31
0
  0
LINE
  8
LAYER1
  6
CONTINUOUS
 62
     7
 10
12.5694
 20
3.4184
 30
0
 11
12.8333
 21
3.4184
 31
0
  0
LINE
  8
LAYER1
  6
CONTINUOUS
 62
     7
 10
12.5417
 20
3.3906
 30
0
 11
12.8611
 21
3.3906
 31
0
  0
LINE
  8
LAYER1
  6
CONTINUOUS
 62
     7
 10
12.5694
 20
3.3628
 30
0
 11
12.8333
 21
3.3628
 31
0
  0
LINE
  8
LAYER1
  6
CONTINUOUS
 62
     7
 10
12.5417
 20
3.3489
 30
0
 11
12.8611
 21
3.3489
 31
0
  0
LINE
  8
LAYER1
  6
CONTINUOUS
 62
     7
 10
12.5694
 20
3.3212
 30
0
 11
12.8333
 21
3.3212
 31
0
  0
LINE
  8
LAYER1
  6
CONTINUOUS
 62
     7
 10
12.5417
 20
3.2934
 30
0
 11
12.8611
 21
3.2934
 31
0
  0
LINE
  8
LAYER1
  6
CONTINUOUS
 62
     7
 10
12.5694
 20
3.2656
 30
0
 11
12.8333
 21
3.2656
 31
0
  0
LINE
  8
LAYER1
  6
CONTINUOUS
 62
     7
 10
12.5417
 20
3.2517
 30
0
 11
12.8611
 21
3.2517
 31
0
  0
LINE
  8
LAYER1
  6
CONTINUOUS
 62
     7
 10
12.5694
 20
3.2239
 30
0
 11
12.8333
 21
3.2239
 31
0
  0
LINE
  8
LAYER1
  6
CONTINUOUS
 62
     7
 10
12.5417
 20
3.1962
 30
0
 11
12.8611
 21
3.1962
 31
0
  0
LINE
  8
LAYER1
  6
CONTINUOUS
 62
     7
 10
12.5694
 20
3.1684
 30
0
 11
12.8333
 21
3.1684
 31
0
  0
LINE
  8
LAYER1
  6
CONTINUOUS
 62
     7
 10
12.5417
 20
3.1545
 30
0
 11
12.8611
 21
3.1545
 31
0
  0
LINE
  8
LAYER1
  6
CONTINUOUS
 62
     7
 10
12.5694
 20
3.1267
 30
0
 11
12.8333
 21
3.1267
 31
0
  0
LINE
  8
LAYER1
  6
CONTINUOUS
 62
     7
 10
12.5417
 20
3.0989
 30
0
 11
12.8611
 21
3.0989
 31
0
  0
LINE
  8
LAYER1
  6
CONTINUOUS
 62
     7
 10
12.5694
 20
3.0712
 30
0
 11
12.8333
 21
3.0712
 31
0
  0
LINE
  8
LAYER1
  6
CONTINUOUS
 62
     7
 10
12.5417
 20
3.0573
 30
0
 11
12.8611
 21
3.0573
 31
0
  0
LINE
  8
LAYER1
  6
CONTINUOUS
 62
     7
 10
12.5694
 20
3.0295
 30
0
 11
12.8333
 21
3.0295
 31
0
  0
LINE
  8
LAYER1
  6
CONTINUOUS
 62
     7
 10
12.5417
 20
3.0017
 30
0
 11
12.8611
 21
3.0017
 31
0
  0
LINE
  8
LAYER1
  6
CONTINUOUS
 62
     7
 10
12.5694
 20
2.9739
 30
0
 11
12.8333
 21
2.9739
 31
0
  0
LINE
  8
LAYER1
  6
CONTINUOUS
 62
     7
 10
12.5417
 20
2.9601
 30
0
 11
12.8611
 21
2.9601
 31
0
  0
LINE
  8
LAYER1
  6
CONTINUOUS
 62
     7
 10
12.5694
 20
2.9323
 30
0
 11
12.8333
 21
2.9323
 31
0
  0
LINE
  8
LAYER1
  6
CONTINUOUS
 62
     7
 10
12.5417
 20
2.9045
 30
0
 11
12.8611
 21
2.9045
 31
0
  0
LINE
  8
LAYER1
  6
CONTINUOUS
 62
     7
 10
12.5694
 20
2.8767
 30
0
 11
12.8333
 21
2.8767
 31
0
  0
LINE
  8
LAYER1
  6
CONTINUOUS
 62
     7
 10
12.5417
 20
2.8628
 30
0
 11
12.8611
 21
2.8628
 31
0
  0
LINE
  8
LAYER1
  6
CONTINUOUS
 62
     7
 10
12.5694
 20
2.8351
 30
0
 11
12.8333
 21
2.8351
 31
0
  0
LINE
  8
LAYER1
  6
CONTINUOUS
 62
     7
 10
12.5417
 20
2.8073
 30
0
 11
12.8611
 21
2.8073
 31
0
  0
LINE
  8
LAYER1
  6
CONTINUOUS
 62
     7
 10
12.5694
 20
2.7795
 30
0
 11
12.8333
 21
2.7795
 31
0
  0
LINE
  8
LAYER1
  6
CONTINUOUS
 62
     7
 10
12.5417
 20
2.7656
 30
0
 11
12.8611
 21
2.7656
 31
0
  0
LINE
  8
LAYER1
  6
CONTINUOUS
 62
     7
 10
12.5694
 20
2.7378
 30
0
 11
12.8333
 21
2.7378
 31
0
  0
LINE
  8
LAYER1
  6
CONTINUOUS
 62
     7
 10
12.5417
 20
2.7101
 30
0
 11
12.8611
 21
2.7101
 31
0
  0
LINE
  8
LAYER1
  6
CONTINUOUS
 62
     7
 10
12.5694
 20
2.6962
 30
0
 11
12.8333
 21
2.6962
 31
0
  0
LINE
  8
LAYER1
  6
CONTINUOUS
 62
     7
 10
12.5417
 20
2.6684
 30
0
 11
12.8611
 21
2.6684
 31
0
  0
LINE
  8
LAYER1
  6
CONTINUOUS
 62
     7
 10
12.5417
 20
2.6545
 30
0
 11
12.8611
 21
2.6545
 31
0
  0
LINE
  8
LAYER1
  6
CONTINUOUS
 62
     7
 10
12.5417
 20
2.6545
 30
0
 11
12.5417
 21
4.0295
 31
0
  0
ENDBLK
  8
LAYER1
  0
BLOCK
  8
LAYER1
  2
Group10
 70
     0
 10
0
 20
0
 30
0
  0
LINE
  8
LAYER1
  6
CONTINUOUS
 62
     7
 10
12.8611
 20
4.0295
 30
0
 11
12.8611
 21
2.6545
 31
0
  0
POLYLINE
  8
LAYER1
  6
CONTINUOUS
 62
     7
 66
     1
 70
     0
 40
0.0039
 41
0.0039
  0
VERTEX
  8
LAYER1
 10
12.6667
 20
2.3767
 30
0
 70
     0
  0
VERTEX
  8
LAYER1
 10
12.6667
 20
2.5295
 30
0
 70
     0
  0
VERTEX
  8
LAYER1
 10
12.75
 20
2.5295
 30
0
 70
     0
  0
VERTEX
  8
LAYER1
 10
12.75
 20
2.3767
 30
0
 70
     0
  0
SEQEND
  0
LINE
  8
LAYER1
  6
CONTINUOUS
 62
     7
 10
13.0139
 20
2.4739
 30
0
 11
12.75
 21
2.4739
 31
0
  0
LINE
  8
LAYER1
  6
CONTINUOUS
 62
     7
 10
12.8611
 20
2.6545
 30
0
 11
13.0139
 21
2.4739
 31
0
  0
LINE
  8
LAYER1
  6
CONTINUOUS
 62
     7
 10
12.6667
 20
2.4739
 30
0
 11
12.3889
 21
2.4739
 31
0
  0
LINE
  8
LAYER1
  6
CONTINUOUS
 62
     7
 10
12.5417
 20
2.6545
 30
0
 11
12.3889
 21
2.4739
 31
0
  0
POLYLINE
  8
LAYER1
  6
CONTINUOUS
 62
     7
 66
     1
 70
     0
 40
0.0039
 41
0.0039
  0
VERTEX
  8
LAYER1
 10
12.6528
 20
2.3767
 30
0
 70
     0
  0
VERTEX
  8
LAYER1
 10
12.625
 20
2.3767
 30
0
 70
     0
  0
VERTEX
  8
LAYER1
 10
12.5556
 20
2.3906
 30
0
 70
     0
  0
VERTEX
  8
LAYER1
 10
12.4861
 20
2.4184
 30
0
 70
     0
  0
VERTEX
  8
LAYER1
 10
12.4167
 20
2.4462
 30
0
 70
     0
  0
VERTEX
  8
LAYER1
 10
12.3889
 20
2.4739
 30
0
 70
     0
  0
SEQEND
  0
POLYLINE
  8
LAYER1
  6
CONTINUOUS
 62
     7
 66
     1
 70
     0
 40
0.0039
 41
0.0039
  0
VERTEX
  8
LAYER1
 10
13.0139
 20
2.4739
 30
0
 70
     0
  0
VERTEX
  8
LAYER1
 10
12.9722
 20
2.4462
 30
0
 70
     0
  0
VERTEX
  8
LAYER1
 10
12.9167
 20
2.4184
 30
0
 70
     0
  0
VERTEX
  8
LAYER1
 10
12.8472
 20
2.3906
 30
0
 70
     0
  0
VERTEX
  8
LAYER1
 10
12.7778
 20
2.3767
 30
0
 70
     0
  0
VERTEX
  8
LAYER1
 10
12.75
 20
2.3767
 30
0
 70
     0
  0
SEQEND
  0
ENDBLK
  8
LAYER1
  0
BLOCK
  8
LAYER1
  2
Group11
 70
     0
 10
0
 20
0
 30
0
  0
INSERT
  8
LAYER1
  2
Group9
 10
0
 20
0
 30
0
  0
INSERT
  8
LAYER1
  2
Group10
 10
0
 20
0
 30
0
  0
ENDBLK
  8
LAYER1
  0
BLOCK
  8
LAYER1
  2
Group12
 70
     0
 10
0
 20
0
 30
0
  0
POLYLINE
  8
LAYER1
  6
CONTINUOUS
 62
     7
 66
     1
 70
     0
 40
0.0039
 41
0.0039
  0
VERTEX
  8
LAYER1
 10
4.5278
 20
1.3212
 30
0
 70
     0
  0
VERTEX
  8
LAYER1
 10
4.5417
 20
1.3073
 30
0
 70
     0
  0
VERTEX
  8
LAYER1
 10
4.5556
 20
1.2934
 30
0
 70
     0
  0
VERTEX
  8
LAYER1
 10
4.5556
 20
1.2934
 30
0
 70
     0
  0
VERTEX
  8
LAYER1
 10
4.5694
 20
1.2795
 30
0
 70
     0
  0
VERTEX
  8
LAYER1
 10
4.5833
 20
1.2656
 30
0
 70
     0
  0
VERTEX
  8
LAYER1
 10
4.5833
 20
1.2517
 30
0
 70
     0
  0
SEQEND
  0
POLYLINE
  8
LAYER1
  6
CONTINUOUS
 62
     7
 66
     1
 70
     0
 40
0.0039
 41
0.0039
  0
VERTEX
  8
LAYER1
 10
4.25
 20
0.9184
 30
0
 70
     0
  0
VERTEX
  8
LAYER1
 10
4.25
 20
0.9184
 30
0
 70
     0
  0
VERTEX
  8
LAYER1
 10
4.2361
 20
0.9323
 30
0
 70
     0
  0
VERTEX
  8
LAYER1
 10
4.2222
 20
0.9462
 30
0
 70
     0
  0
VERTEX
  8
LAYER1
 10
4.2083
 20
0.9462
 30
0
 70
     0
  0
VERTEX
  8
LAYER1
 10
4.1944
 20
0.9739
 30
0
 70
     0
  0
VERTEX
  8
LAYER1
 10
4.1806
 20
0.9878
 30
0
 70
     0
  0
SEQEND
  0
LINE
  8
LAYER1
  6
CONTINUOUS
 62
     7
 10
4.5694
 20
1.3628
 30
0
 11
4.1389
 21
0.9323
 31
0
  0
LINE
  8
LAYER1
  6
CONTINUOUS
 62
     7
 10
4.6389
 20
1.3073
 30
0
 11
4.1944
 21
0.8767
 31
0
  0
POLYLINE
  8
LAYER1
  6
CONTINUOUS
 62
     7
 66
     1
 70
     0
 40
0.0039
 41
0.0039
  0
VERTEX
  8
LAYER1
 10
4.1389
 20
0.9323
 30
0
 70
     0
  0
VERTEX
  8
LAYER1
 10
4.125
 20
0.9462
 30
0
 70
     0
  0
VERTEX
  8
LAYER1
 10
4.0972
 20
0.9878
 30
0
 70
     0
  0
VERTEX
  8
LAYER1
 10
4.0833
 20
1.0295
 30
0
 70
     0
  0
VERTEX
  8
LAYER1
 10
4.0694
 20
1.0851
 30
0
 70
     0
  0
VERTEX
  8
LAYER1
 10
4.0694
 20
1.1128
 30
0
 70
     0
  0
VERTEX
  8
LAYER1
 10
4.0694
 20
1.1406
 30
0
 70
     0
  0
VERTEX
  8
LAYER1
 10
4.0833
 20
1.2101
 30
0
 70
     0
  0
VERTEX
  8
LAYER1
 10
4.1111
 20
1.2656
 30
0
 70
     0
  0
VERTEX
  8
LAYER1
 10
4.1389
 20
1.3073
 30
0
 70
     0
  0
VERTEX
  8
LAYER1
 10
4.1667
 20
1.3351
 30
0
 70
     0
  0
VERTEX
  8
LAYER1
 10
4.1944
 20
1.3628
 30
0
 70
     0
  0
VERTEX
  8
LAYER1
 10
4.2361
 20
1.3906
 30
0
 70
     0
  0
VERTEX
  8
LAYER1
 10
4.2917
 20
1.4184
 30
0
 70
     0
  0
VERTEX
  8
LAYER1
 10
4.3611
 20
1.4323
 30
0
 70
     0
  0
VERTEX
  8
LAYER1
 10
4.3889
 20
1.4323
 30
0
 70
     0
  0
VERTEX
  8
LAYER1
 10
4.4167
 20
1.4323
 30
0
 70
     0
  0
VERTEX
  8
LAYER1
 10
4.4722
 20
1.4184
 30
0
 70
     0
  0
VERTEX
  8
LAYER1
 10
4.5139
 20
1.4045
 30
0
 70
     0
  0
VERTEX
  8
LAYER1
 10
4.5556
 20
1.3767
 30
0
 70
     0
  0
VERTEX
  8
LAYER1
 10
4.5694
 20
1.3628
 30
0
 70
     0
  0
SEQEND
  0
POLYLINE
  8
LAYER1
  6
CONTINUOUS
 62
     7
 66
     1
 70
     0
 40
0.0039
 41
0.0039
  0
VERTEX
  8
LAYER1
 10
4.6389
 20
1.3073
 30
0
 70
     0
  0
VERTEX
  8
LAYER1
 10
4.6528
 20
1.2795
 30
0
 70
     0
  0
VERTEX
  8
LAYER1
 10
4.6806
 20
1.2378
 30
0
 70
     0
  0
VERTEX
  8
LAYER1
 10
4.6944
 20
1.1823
 30
0
 70
     0
  0
VERTEX
  8
LAYER1
 10
4.6944
 20
1.1406
 30
0
 70
     0
  0
VERTEX
  8
LAYER1
 10
4.6944
 20
1.1128
 30
0
 70
     0
  0
VERTEX
  8
LAYER1
 10
4.6944
 20
1.0851
 30
0
 70
     0
  0
VERTEX
  8
LAYER1
 10
4.6806
 20
1.0156
 30
0
 70
     0
  0
VERTEX
  8
LAYER1
 10
4.6667
 20
0.9739
 30
0
 70
     0
  0
VERTEX
  8
LAYER1
 10
4.6389
 20
0.9323
 30
0
 70
     0
  0
VERTEX
  8
LAYER1
 10
4.6111
 20
0.9045
 30
0
 70
     0
  0
VERTEX
  8
LAYER1
 10
4.5833
 20
0.8767
 30
0
 70
     0
  0
VERTEX
  8
LAYER1
 10
4.5417
 20
0.8489
 30
0
 70
     0
  0
VERTEX
  8
LAYER1
 10
4.4861
 20
0.8212
 30
0
 70
     0
  0
VERTEX
  8
LAYER1
 10
4.4167
 20
0.8073
 30
0
 70
     0
  0
VERTEX
  8
LAYER1
 10
4.3889
 20
0.8073
 30
0
 70
     0
  0
VERTEX
  8
LAYER1
 10
4.3611
 20
0.8073
 30
0
 70
     0
  0
VERTEX
  8
LAYER1
 10
4.3056
 20
0.8212
 30
0
 70
     0
  0
VERTEX
  8
LAYER1
 10
4.25
 20
0.8351
 30
0
 70
     0
  0
VERTEX
  8
LAYER1
 10
4.2083
 20
0.8628
 30
0
 70
     0
  0
VERTEX
  8
LAYER1
 10
4.1944
 20
0.8767
 30
0
 70
     0
  0
SEQEND
  0
ENDBLK
  8
LAYER1
  0
BLOCK
  8
LAYER1
  2
Group13
 70
     0
 10
0
 20
0
 30
0
  0
LINE
  8
LAYER1
  6
CONTINUOUS
 62
     7
 10
3.5556
 20
4.2934
 30
0
 11
3.7917
 21
4.2934
 31
0
  0
LINE
  8
LAYER1
  6
CONTINUOUS
 62
     7
 10
3.5556
 20
4.5573
 30
0
 11
3.7917
 21
4.5573
 31
0
  0
LINE
  8
LAYER1
  6
CONTINUOUS
 62
     7
 10
3.5694
 20
4.5434
 30
0
 11
3.7639
 21
4.5434
 31
0
  0
LINE
  8
LAYER1
  6
CONTINUOUS
 62
     7
 10
3.5556
 20
4.5295
 30
0
 11
3.7917
 21
4.5295
 31
0
  0
LINE
  8
LAYER1
  6
CONTINUOUS
 62
     7
 10
3.5694
 20
4.5017
 30
0
 11
3.7639
 21
4.5017
 31
0
  0
LINE
  8
LAYER1
  6
CONTINUOUS
 62
     7
 10
3.5556
 20
4.4878
 30
0
 11
3.7917
 21
4.4878
 31
0
  0
LINE
  8
LAYER1
  6
CONTINUOUS
 62
     7
 10
3.5694
 20
4.4601
 30
0
 11
3.7639
 21
4.4601
 31
0
  0
LINE
  8
LAYER1
  6
CONTINUOUS
 62
     7
 10
3.5556
 20
4.4462
 30
0
 11
3.7917
 21
4.4462
 31
0
  0
LINE
  8
LAYER1
  6
CONTINUOUS
 62
     7
 10
3.5694
 20
4.4323
 30
0
 11
3.7639
 21
4.4323
 31
0
  0
LINE
  8
LAYER1
  6
CONTINUOUS
 62
     7
 10
3.5556
 20
4.4045
 30
0
 11
3.7917
 21
4.4045
 31
0
  0
LINE
  8
LAYER1
  6
CONTINUOUS
 62
     7
 10
3.5694
 20
4.3906
 30
0
 11
3.7639
 21
4.3906
 31
0
  0
LINE
  8
LAYER1
  6
CONTINUOUS
 62
     7
 10
3.5556
 20
4.3628
 30
0
 11
3.7917
 21
4.3628
 31
0
  0
LINE
  8
LAYER1
  6
CONTINUOUS
 62
     7
 10
3.5694
 20
4.3489
 30
0
 11
3.7639
 21
4.3489
 31
0
  0
LINE
  8
LAYER1
  6
CONTINUOUS
 62
     7
 10
3.5556
 20
4.3212
 30
0
 11
3.7917
 21
4.3212
 31
0
  0
LINE
  8
LAYER1
  6
CONTINUOUS
 62
     7
 10
3.5694
 20
4.3073
 30
0
 11
3.7639
 21
4.3073
 31
0
  0
LINE
  8
LAYER1
  6
CONTINUOUS
 62
     7
 10
3.5694
 20
4.5851
 30
0
 11
3.7639
 21
4.5851
 31
0
  0
LINE
  8
LAYER1
  6
CONTINUOUS
 62
     7
 10
3.5556
 20
4.5573
 30
0
 11
3.5694
 21
4.5851
 31
0
  0
LINE
  8
LAYER1
  6
CONTINUOUS
 62
     7
 10
3.7917
 20
4.5573
 30
0
 11
3.7639
 21
4.5851
 31
0
  0
LINE
  8
LAYER1
  6
CONTINUOUS
 62
     7
 10
3.5556
 20
4.2517
 30
0
 11
3.7917
 21
4.2517
 31
0
  0
LINE
  8
LAYER1
  6
CONTINUOUS
 62
     7
 10
3.5694
 20
4.2656
 30
0
 11
3.7639
 21
4.2656
 31
0
  0
LINE
  8
LAYER1
  6
CONTINUOUS
 62
     7
 10
3.5556
 20
4.2101
 30
0
 11
3.7917
 21
4.2101
 31
0
  0
LINE
  8
LAYER1
  6
CONTINUOUS
 62
     7
 10
3.5694
 20
4.2239
 30
0
 11
3.7639
 21
4.2239
 31
0
  0
LINE
  8
LAYER1
  6
CONTINUOUS
 62
     7
 10
3.5556
 20
4.1962
 30
0
 11
3.7917
 21
4.1962
 31
0
  0
LINE
  8
LAYER1
  6
CONTINUOUS
 62
     7
 10
3.5556
 20
4.1962
 30
0
 11
3.5556
 21
4.5573
 31
0
  0
ENDBLK
  8
LAYER1
  0
BLOCK
  8
LAYER1
  2
Group14
 70
     0
 10
0
 20
0
 30
0
  0
LINE
  8
LAYER1
  6
CONTINUOUS
 62
     7
 10
3.7917
 20
4.1962
 30
0
 11
3.9167
 21
4.0295
 31
0
  0
ENDBLK
  8
LAYER1
  0
BLOCK
  8
LAYER1
  2
Group15
 70
     0
 10
0
 20
0
 30
0
  0
LINE
  8
LAYER1
  6
CONTINUOUS
 62
     7
 10
3.7917
 20
4.1962
 30
0
 11
3.7917
 21
4.5573
 31
0
  0
LINE
  8
LAYER1
  6
CONTINUOUS
 62
     7
 10
3.5556
 20
4.1962
 30
0
 11
3.4167
 21
4.0295
 31
0
  0
INSERT
  8
LAYER1
  2
Group14
 10
0
 20
0
 30
0
  0
POLYLINE
  8
LAYER1
  6
CONTINUOUS
 62
     7
 66
     1
 70
     0
 40
0.0039
 41
0.0039
  0
VERTEX
  8
LAYER1
 10
3.625
 20
3.9601
 30
0
 70
     0
  0
VERTEX
  8
LAYER1
 10
3.625
 20
4.0851
 30
0
 70
     0
  0
VERTEX
  8
LAYER1
 10
3.7083
 20
4.0851
 30
0
 70
     0
  0
VERTEX
  8
LAYER1
 10
3.7083
 20
3.9601
 30
0
 70
     0
  0
SEQEND
  0
LINE
  8
LAYER1
  6
CONTINUOUS
 62
     7
 10
3.9167
 20
4.0295
 30
0
 11
3.7083
 21
4.0295
 31
0
  0
LINE
  8
LAYER1
  6
CONTINUOUS
 62
     7
 10
3.625
 20
4.0295
 30
0
 11
3.4167
 21
4.0295
 31
0
  0
POLYLINE
  8
LAYER1
  6
CONTINUOUS
 62
     7
 66
     1
 70
     0
 40
0.0039
 41
0.0039
  0
VERTEX
  8
LAYER1
 10
3.625
 20
3.9601
 30
0
 70
     0
  0
VERTEX
  8
LAYER1
 10
3.5972
 20
3.9601
 30
0
 70
     0
  0
VERTEX
  8
LAYER1
 10
3.5556
 20
3.9739
 30
0
 70
     0
  0
VERTEX
  8
LAYER1
 10
3.5
 20
3.9878
 30
0
 70
     0
  0
VERTEX
  8
LAYER1
 10
3.4444
 20
4.0156
 30
0
 70
     0
  0
VERTEX
  8
LAYER1
 10
3.4167
 20
4.0295
 30
0
 70
     0
  0
SEQEND
  0
POLYLINE
  8
LAYER1
  6
CONTINUOUS
 62
     7
 66
     1
 70
     0
 40
0.0039
 41
0.0039
  0
VERTEX
  8
LAYER1
 10
3.9167
 20
4.0295
 30
0
 70
     0
  0
VERTEX
  8
LAYER1
 10
3.8889
 20
4.0156
 30
0
 70
     0
  0
VERTEX
  8
LAYER1
 10
3.8333
 20
3.9878
 30
0
 70
     0
  0
VERTEX
  8
LAYER1
 10
3.7778
 20
3.9739
 30
0
 70
     0
  0
VERTEX
  8
LAYER1
 10
3.7361
 20
3.9601
 30
0
 70
     0
  0
VERTEX
  8
LAYER1
 10
3.7083
 20
3.9601
 30
0
 70
     0
  0
SEQEND
  0
ENDBLK
  8
LAYER1
  0
BLOCK
  8
LAYER1
  2
Group16
 70
     0
 10
0
 20
0
 30
0
  0
INSERT
  8
LAYER1
  2
Group13
 10
0
 20
0
 30
0
  0
INSERT
  8
LAYER1
  2
Group15
 10
0
 20
0
 30
0
  0
ENDBLK
  8
LAYER1
  0
BLOCK
  8
LAYER1
  2
Group17
 70
     0
 10
0
 20
0
 30
0
  0
LINE
  8
LAYER1
  6
CONTINUOUS
 62
     7
 10
3.8194
 20
1.3212
 30
0
 11
3.4722
 21
0.9739
 31
0
  0
LINE
  8
LAYER1
  6
CONTINUOUS
 62
     7
 10
3.875
 20
1.2656
 30
0
 11
3.5278
 21
0.9184
 31
0
  0
POLYLINE
  8
LAYER1
  6
CONTINUOUS
 62
     7
 66
     1
 70
     0
 40
0.0039
 41
0.0039
  0
VERTEX
  8
LAYER1
 10
3.7639
 20
1.2656
 30
0
 70
     0
  0
VERTEX
  8
LAYER1
 10
3.7778
 20
1.2656
 30
0
 70
     0
  0
VERTEX
  8
LAYER1
 10
3.7917
 20
1.2517
 30
0
 70
     0
  0
VERTEX
  8
LAYER1
 10
3.7917
 20
1.2517
 30
0
 70
     0
  0
VERTEX
  8
LAYER1
 10
3.8056
 20
1.2378
 30
0
 70
     0
  0
VERTEX
  8
LAYER1
 10
3.8194
 20
1.2239
 30
0
 70
     0
  0
VERTEX
  8
LAYER1
 10
3.8194
 20
1.2239
 30
0
 70
     0
  0
SEQEND
  0
POLYLINE
  8
LAYER1
  6
CONTINUOUS
 62
     7
 66
     1
 70
     0
 40
0.0039
 41
0.0039
  0
VERTEX
  8
LAYER1
 10
3.5694
 20
0.9739
 30
0
 70
     0
  0
VERTEX
  8
LAYER1
 10
3.5694
 20
0.9739
 30
0
 70
     0
  0
VERTEX
  8
LAYER1
 10
3.5556
 20
0.9739
 30
0
 70
     0
  0
VERTEX
  8
LAYER1
 10
3.5417
 20
0.9878
 30
0
 70
     0
  0
VERTEX
  8
LAYER1
 10
3.5417
 20
0.9878
 30
0
 70
     0
  0
VERTEX
  8
LAYER1
 10
3.5278
 20
1.0017
 30
0
 70
     0
  0
VERTEX
  8
LAYER1
 10
3.5139
 20
1.0156
 30
0
 70
     0
  0
SEQEND
  0
POLYLINE
  8
LAYER1
  6
CONTINUOUS
 62
     7
 66
     1
 70
     0
 40
0.0039
 41
0.0039
  0
VERTEX
  8
LAYER1
 10
3.4722
 20
0.9739
 30
0
 70
     0
  0
VERTEX
  8
LAYER1
 10
3.4583
 20
0.9878
 30
0
 70
     0
  0
VERTEX
  8
LAYER1
 10
3.4444
 20
1.0156
 30
0
 70
     0
  0
VERTEX
  8
LAYER1
 10
3.4306
 20
1.0573
 30
0
 70
     0
  0
VERTEX
  8
LAYER1
 10
3.4167
 20
1.0989
 30
0
 70
     0
  0
VERTEX
  8
LAYER1
 10
3.4167
 20
1.1128
 30
0
 70
     0
  0
VERTEX
  8
LAYER1
 10
3.4167
 20
1.1406
 30
0
 70
     0
  0
VERTEX
  8
LAYER1
 10
3.4306
 20
1.1962
 30
0
 70
     0
  0
VERTEX
  8
LAYER1
 10
3.4444
 20
1.2239
 30
0
 70
     0
  0
VERTEX
  8
LAYER1
 10
3.4861
 20
1.2795
 30
0
 70
     0
  0
VERTEX
  8
LAYER1
 10
3.5
 20
1.2934
 30
0
 70
     0
  0
VERTEX
  8
LAYER1
 10
3.5139
 20
1.3073
 30
0
 70
     0
  0
VERTEX
  8
LAYER1
 10
3.5556
 20
1.3351
 30
0
 70
     0
  0
VERTEX
  8
LAYER1
 10
3.5972
 20
1.3489
 30
0
 70
     0
  0
VERTEX
  8
LAYER1
 10
3.6389
 20
1.3628
 30
0
 70
     0
  0
VERTEX
  8
LAYER1
 10
3.6667
 20
1.3628
 30
0
 70
     0
  0
VERTEX
  8
LAYER1
 10
3.6944
 20
1.3628
 30
0
 70
     0
  0
VERTEX
  8
LAYER1
 10
3.7222
 20
1.3628
 30
0
 70
     0
  0
VERTEX
  8
LAYER1
 10
3.7639
 20
1.3489
 30
0
 70
     0
  0
VERTEX
  8
LAYER1
 10
3.7917
 20
1.3351
 30
0
 70
     0
  0
VERTEX
  8
LAYER1
 10
3.8194
 20
1.3212
 30
0
 70
     0
  0
SEQEND
  0
POLYLINE
  8
LAYER1
  6
CONTINUOUS
 62
     7
 66
     1
 70
     0
 40
0.0039
 41
0.0039
  0
VERTEX
  8
LAYER1
 10
3.875
 20
1.2656
 30
0
 70
     0
  0
VERTEX
  8
LAYER1
 10
3.8889
 20
1.2378
 30
0
 70
     0
  0
VERTEX
  8
LAYER1
 10
3.9028
 20
1.2101
 30
0
 70
     0
  0
VERTEX
  8
LAYER1
 10
3.9167
 20
1.1684
 30
0
 70
     0
  0
VERTEX
  8
LAYER1
 10
3.9167
 20
1.1267
 30
0
 70
     0
  0
VERTEX
  8
LAYER1
 10
3.9167
 20
1.1128
 30
0
 70
     0
  0
VERTEX
  8
LAYER1
 10
3.9167
 20
1.0851
 30
0
 70
     0
  0
VERTEX
  8
LAYER1
 10
3.9028
 20
1.0434
 30
0
 70
     0
  0
VERTEX
  8
LAYER1
 10
3.8889
 20
1.0017
 30
0
 70
     0
  0
VERTEX
  8
LAYER1
 10
3.8611
 20
0.9601
 30
0
 70
     0
  0
VERTEX
  8
LAYER1
 10
3.8472
 20
0.9462
 30
0
 70
     0
  0
VERTEX
  8
LAYER1
 10
3.8333
 20
0.9323
 30
0
 70
     0
  0
VERTEX
  8
LAYER1
 10
3.7917
 20
0.9045
 30
0
 70
     0
  0
VERTEX
  8
LAYER1
 10
3.75
 20
0.8906
 30
0
 70
     0
  0
VERTEX
  8
LAYER1
 10
3.6944
 20
0.8767
 30
0
 70
     0
  0
VERTEX
  8
LAYER1
 10
3.6667
 20
0.8767
 30
0
 70
     0
  0
VERTEX
  8
LAYER1
 10
3.6528
 20
0.8767
 30
0
 70
     0
  0
VERTEX
  8
LAYER1
 10
3.6111
 20
0.8767
 30
0
 70
     0
  0
VERTEX
  8
LAYER1
 10
3.5833
 20
0.8906
 30
0
 70
     0
  0
VERTEX
  8
LAYER1
 10
3.5417
 20
0.9045
 30
0
 70
     0
  0
VERTEX
  8
LAYER1
 10
3.5278
 20
0.9184
 30
0
 70
     0
  0
SEQEND
  0
ENDBLK
  8
LAYER1
  0
BLOCK
  8
LAYER1
  2
Group18
 70
     0
 10
0
 20
0
 30
0
  0
LINE
  8
LAYER1
  6
CONTINUOUS
 62
     7
 10
2.9722
 20
3.5712
 30
0
 11
3.1667
 21
3.5712
 31
0
  0
LINE
  8
LAYER1
  6
CONTINUOUS
 62
     7
 10
2.9722
 20
3.8628
 30
0
 11
3.1667
 21
3.8628
 31
0
  0
POLYLINE
  8
LAYER1
  6
CONTINUOUS
 62
     7
 66
     1
 70
     0
 40
0.0019
 41
0.0019
  0
VERTEX
  8
LAYER1
 10
2.9722
 20
3.5712
 30
0
 70
     0
  0
VERTEX
  8
LAYER1
 10
2.9722
 20
3.8628
 30
0
 70
     0
  0
VERTEX
  8
LAYER1
 10
3
 20
3.8906
 30
0
 70
     0
  0
VERTEX
  8
LAYER1
 10
3.1389
 20
3.8906
 30
0
 70
     0
  0
SEQEND
  0
LINE
  8
LAYER1
  6
CONTINUOUS
 62
     7
 10
2.9722
 20
3.8351
 30
0
 11
3.1667
 21
3.8351
 31
0
  0
LINE
  8
LAYER1
  6
CONTINUOUS
 62
     7
 10
2.9722
 20
3.7934
 30
0
 11
3.1667
 21
3.7934
 31
0
  0
LINE
  8
LAYER1
  6
CONTINUOUS
 62
     7
 10
2.9722
 20
3.7656
 30
0
 11
3.1667
 21
3.7656
 31
0
  0
LINE
  8
LAYER1
  6
CONTINUOUS
 62
     7
 10
2.9722
 20
3.7378
 30
0
 11
3.1667
 21
3.7378
 31
0
  0
LINE
  8
LAYER1
  6
CONTINUOUS
 62
     7
 10
2.9722
 20
3.7101
 30
0
 11
3.1667
 21
3.7101
 31
0
  0
LINE
  8
LAYER1
  6
CONTINUOUS
 62
     7
 10
2.9722
 20
3.6684
 30
0
 11
3.1667
 21
3.6684
 31
0
  0
LINE
  8
LAYER1
  6
CONTINUOUS
 62
     7
 10
2.9722
 20
3.6406
 30
0
 11
3.1667
 21
3.6406
 31
0
  0
LINE
  8
LAYER1
  6
CONTINUOUS
 62
     7
 10
2.9722
 20
3.6128
 30
0
 11
3.1667
 21
3.6128
 31
0
  0
LINE
  8
LAYER1
  6
CONTINUOUS
 62
     7
 10
2.9861
 20
3.8489
 30
0
 11
3.1389
 21
3.8489
 31
0
  0
LINE
  8
LAYER1
  6
CONTINUOUS
 62
     7
 10
2.9861
 20
3.8073
 30
0
 11
3.1389
 21
3.8073
 31
0
  0
LINE
  8
LAYER1
  6
CONTINUOUS
 62
     7
 10
2.9861
 20
3.7795
 30
0
 11
3.1389
 21
3.7795
 31
0
  0
LINE
  8
LAYER1
  6
CONTINUOUS
 62
     7
 10
2.9861
 20
3.7517
 30
0
 11
3.1389
 21
3.7517
 31
0
  0
LINE
  8
LAYER1
  6
CONTINUOUS
 62
     7
 10
2.9861
 20
3.7239
 30
0
 11
3.1389
 21
3.7239
 31
0
  0
LINE
  8
LAYER1
  6
CONTINUOUS
 62
     7
 10
2.9861
 20
3.6823
 30
0
 11
3.1389
 21
3.6823
 31
0
  0
LINE
  8
LAYER1
  6
CONTINUOUS
 62
     7
 10
2.9861
 20
3.6545
 30
0
 11
3.1389
 21
3.6545
 31
0
  0
LINE
  8
LAYER1
  6
CONTINUOUS
 62
     7
 10
2.9861
 20
3.6267
 30
0
 11
3.1389
 21
3.6267
 31
0
  0
LINE
  8
LAYER1
  6
CONTINUOUS
 62
     7
 10
2.9861
 20
3.5989
 30
0
 11
3.1389
 21
3.5989
 31
0
  0
ENDBLK
  8
LAYER1
  0
BLOCK
  8
LAYER1
  2
Group19
 70
     0
 10
0
 20
0
 30
0
  0
POLYLINE
  8
LAYER1
  6
CONTINUOUS
 62
     7
 66
     1
 70
     0
 40
0.0039
 41
0.0039
  0
VERTEX
  8
LAYER1
 10
3.1667
 20
3.5712
 30
0
 70
     0
  0
VERTEX
  8
LAYER1
 10
3.1667
 20
3.8628
 30
0
 70
     0
  0
VERTEX
  8
LAYER1
 10
3.1389
 20
3.8906
 30
0
 70
     0
  0
SEQEND
  0
LINE
  8
LAYER1
  6
CONTINUOUS
 62
     7
 10
2.9722
 20
3.5712
 30
0
 11
2.875
 21
3.4739
 31
0
  0
LINE
  8
LAYER1
  6
CONTINUOUS
 62
     7
 10
3.1667
 20
3.5712
 30
0
 11
3.25
 21
3.4739
 31
0
  0
POLYLINE
  8
LAYER1
  6
CONTINUOUS
 62
     7
 66
     1
 70
     0
 40
0.0039
 41
0.0039
  0
VERTEX
  8
LAYER1
 10
3.0417
 20
3.4184
 30
0
 70
     0
  0
VERTEX
  8
LAYER1
 10
3.0417
 20
3.5156
 30
0
 70
     0
  0
VERTEX
  8
LAYER1
 10
3.0972
 20
3.5156
 30
0
 70
     0
  0
VERTEX
  8
LAYER1
 10
3.0972
 20
3.4184
 30
0
 70
     0
  0
SEQEND
  0
LINE
  8
LAYER1
  6
CONTINUOUS
 62
     7
 10
3.25
 20
3.4739
 30
0
 11
3.0972
 21
3.4739
 31
0
  0
LINE
  8
LAYER1
  6
CONTINUOUS
 62
     7
 10
3.0417
 20
3.4739
 30
0
 11
2.875
 21
3.4739
 31
0
  0
POLYLINE
  8
LAYER1
  6
CONTINUOUS
 62
     7
 66
     1
 70
     0
 40
0.0039
 41
0.0039
  0
VERTEX
  8
LAYER1
 10
3.0278
 20
3.4184
 30
0
 70
     0
  0
VERTEX
  8
LAYER1
 10
2.9861
 20
3.4184
 30
0
 70
     0
  0
VERTEX
  8
LAYER1
 10
2.9167
 20
3.4462
 30
0
 70
     0
  0
VERTEX
  8
LAYER1
 10
2.875
 20
3.4739
 30
0
 70
     0
  0
SEQEND
  0
POLYLINE
  8
LAYER1
  6
CONTINUOUS
 62
     7
 66
     1
 70
     0
 40
0.0039
 41
0.0039
  0
VERTEX
  8
LAYER1
 10
3.25
 20
3.4739
 30
0
 70
     0
  0
VERTEX
  8
LAYER1
 10
3.2361
 20
3.4601
 30
0
 70
     0
  0
VERTEX
  8
LAYER1
 10
3.1944
 20
3.4323
 30
0
 70
     0
  0
VERTEX
  8
LAYER1
 10
3.1528
 20
3.4184
 30
0
 70
     0
  0
VERTEX
  8
LAYER1
 10
3.125
 20
3.4184
 30
0
 70
     0
  0
VERTEX
  8
LAYER1
 10
3.0972
 20
3.4184
 30
0
 70
     0
  0
SEQEND
  0
ENDBLK
  8
LAYER1
  0
BLOCK
  8
LAYER1
  2
Group20
 70
     0
 10
0
 20
0
 30
0
  0
INSERT
  8
LAYER1
  2
Group18
 10
0
 20
0
 30
0
  0
INSERT
  8
LAYER1
  2
Group19
 10
0
 20
0
 30
0
  0
ENDBLK
  8
LAYER1
  0
BLOCK
  8
LAYER1
  2
Group21
 70
     0
 10
0
 20
0
 30
0
  0
POLYLINE
  8
LAYER1
  6
CONTINUOUS
 62
     7
 66
     1
 70
     0
 40
0.0039
 41
0.0039
  0
VERTEX
  8
LAYER1
 10
3.1389
 20
1.2239
 30
0
 70
     0
  0
VERTEX
  8
LAYER1
 10
3.1528
 20
1.2239
 30
0
 70
     0
  0
VERTEX
  8
LAYER1
 10
3.1528
 20
1.2101
 30
0
 70
     0
  0
VERTEX
  8
LAYER1
 10
3.1528
 20
1.2101
 30
0
 70
     0
  0
VERTEX
  8
LAYER1
 10
3.1667
 20
1.1962
 30
0
 70
     0
  0
VERTEX
  8
LAYER1
 10
3.1806
 20
1.1962
 30
0
 70
     0
  0
VERTEX
  8
LAYER1
 10
3.1806
 20
1.1962
 30
0
 70
     0
  0
SEQEND
  0
POLYLINE
  8
LAYER1
  6
CONTINUOUS
 62
     7
 66
     1
 70
     0
 40
0.0039
 41
0.0039
  0
VERTEX
  8
LAYER1
 10
3
 20
1.0156
 30
0
 70
     0
  0
VERTEX
  8
LAYER1
 10
3
 20
1.0156
 30
0
 70
     0
  0
VERTEX
  8
LAYER1
 10
2.9861
 20
1.0156
 30
0
 70
     0
  0
VERTEX
  8
LAYER1
 10
2.9722
 20
1.0295
 30
0
 70
     0
  0
VERTEX
  8
LAYER1
 10
2.9722
 20
1.0295
 30
0
 70
     0
  0
VERTEX
  8
LAYER1
 10
2.9722
 20
1.0434
 30
0
 70
     0
  0
VERTEX
  8
LAYER1
 10
2.9583
 20
1.0434
 30
0
 70
     0
  0
SEQEND
  0
LINE
  8
LAYER1
  6
CONTINUOUS
 62
     7
 10
3.1806
 20
1.2656
 30
0
 11
2.9167
 21
1.0156
 31
0
  0
LINE
  8
LAYER1
  6
CONTINUOUS
 62
     7
 10
3.2222
 20
1.2239
 30
0
 11
2.9583
 21
0.9739
 31
0
  0
POLYLINE
  8
LAYER1
  6
CONTINUOUS
 62
     7
 66
     1
 70
     0
 40
0.0039
 41
0.0039
  0
VERTEX
  8
LAYER1
 10
2.9167
 20
1.0156
 30
0
 70
     0
  0
VERTEX
  8
LAYER1
 10
2.9028
 20
1.0295
 30
0
 70
     0
  0
VERTEX
  8
LAYER1
 10
2.8889
 20
1.0573
 30
0
 70
     0
  0
VERTEX
  8
LAYER1
 10
2.875
 20
1.0851
 30
0
 70
     0
  0
VERTEX
  8
LAYER1
 10
2.875
 20
1.0989
 30
0
 70
     0
  0
VERTEX
  8
LAYER1
 10
2.875
 20
1.1128
 30
0
 70
     0
  0
VERTEX
  8
LAYER1
 10
2.875
 20
1.1267
 30
0
 70
     0
  0
VERTEX
  8
LAYER1
 10
2.8889
 20
1.1823
 30
0
 70
     0
  0
VERTEX
  8
LAYER1
 10
2.9028
 20
1.2101
 30
0
 70
     0
  0
VERTEX
  8
LAYER1
 10
2.9167
 20
1.2378
 30
0
 70
     0
  0
VERTEX
  8
LAYER1
 10
2.9306
 20
1.2517
 30
0
 70
     0
  0
VERTEX
  8
LAYER1
 10
2.9444
 20
1.2656
 30
0
 70
     0
  0
VERTEX
  8
LAYER1
 10
2.9722
 20
1.2795
 30
0
 70
     0
  0
VERTEX
  8
LAYER1
 10
3
 20
1.2934
 30
0
 70
     0
  0
VERTEX
  8
LAYER1
 10
3.0556
 20
1.3073
 30
0
 70
     0
  0
VERTEX
  8
LAYER1
 10
3.0694
 20
1.3073
 30
0
 70
     0
  0
VERTEX
  8
LAYER1
 10
3.0833
 20
1.3073
 30
0
 70
     0
  0
VERTEX
  8
LAYER1
 10
3.1111
 20
1.3073
 30
0
 70
     0
  0
VERTEX
  8
LAYER1
 10
3.1389
 20
1.2934
 30
0
 70
     0
  0
VERTEX
  8
LAYER1
 10
3.1667
 20
1.2795
 30
0
 70
     0
  0
VERTEX
  8
LAYER1
 10
3.1806
 20
1.2656
 30
0
 70
     0
  0
SEQEND
  0
POLYLINE
  8
LAYER1
  6
CONTINUOUS
 62
     7
 66
     1
 70
     0
 40
0.0039
 41
0.0039
  0
VERTEX
  8
LAYER1
 10
3.2222
 20
1.2239
 30
0
 70
     0
  0
VERTEX
  8
LAYER1
 10
3.2361
 20
1.1962
 30
0
 70
     0
  0
VERTEX
  8
LAYER1
 10
3.25
 20
1.1406
 30
0
 70
     0
  0
VERTEX
  8
LAYER1
 10
3.25
 20
1.1128
 30
0
 70
     0
  0
VERTEX
  8
LAYER1
 10
3.25
 20
1.0989
 30
0
 70
     0
  0
VERTEX
  8
LAYER1
 10
3.25
 20
1.0712
 30
0
 70
     0
  0
VERTEX
  8
LAYER1
 10
3.2361
 20
1.0434
 30
0
 70
     0
  0
VERTEX
  8
LAYER1
 10
3.2083
 20
1.0017
 30
0
 70
     0
  0
VERTEX
  8
LAYER1
 10
3.1944
 20
0.9878
 30
0
 70
     0
  0
VERTEX
  8
LAYER1
 10
3.1806
 20
0.9739
 30
0
 70
     0
  0
VERTEX
  8
LAYER1
 10
3.1389
 20
0.9462
 30
0
 70
     0
  0
VERTEX
  8
LAYER1
 10
3.1111
 20
0.9323
 30
0
 70
     0
  0
VERTEX
  8
LAYER1
 10
3.0833
 20
0.9323
 30
0
 70
     0
  0
VERTEX
  8
LAYER1
 10
3.0694
 20
0.9323
 30
0
 70
     0
  0
VERTEX
  8
LAYER1
 10
3.0556
 20
0.9323
 30
0
 70
     0
  0
VERTEX
  8
LAYER1
 10
3.0278
 20
0.9323
 30
0
 70
     0
  0
VERTEX
  8
LAYER1
 10
3
 20
0.9462
 30
0
 70
     0
  0
VERTEX
  8
LAYER1
 10
2.9722
 20
0.9601
 30
0
 70
     0
  0
VERTEX
  8
LAYER1
 10
2.9583
 20
0.9739
 30
0
 70
     0
  0
SEQEND
  0
ENDBLK
  8
LAYER1
  0
BLOCK
  8
LAYER1
  2
Group22
 70
     0
 10
0
 20
0
 30
0
  0
LINE
  8
LAYER1
  6
CONTINUOUS
 62
     7
 10
2.4583
 20
3.3073
 30
0
 11
2.6111
 21
3.3073
 31
0
  0
LINE
  8
LAYER1
  6
CONTINUOUS
 62
     7
 10
2.4583
 20
3.2517
 30
0
 11
2.6111
 21
3.2517
 31
0
  0
LINE
  8
LAYER1
  6
CONTINUOUS
 62
     7
 10
2.4722
 20
3.2795
 30
0
 11
2.5972
 21
3.2795
 31
0
  0
LINE
  8
LAYER1
  6
CONTINUOUS
 62
     7
 10
2.4583
 20
3.1962
 30
0
 11
2.6111
 21
3.1962
 31
0
  0
LINE
  8
LAYER1
  6
CONTINUOUS
 62
     7
 10
2.4722
 20
3.2239
 30
0
 11
2.5972
 21
3.2239
 31
0
  0
LINE
  8
LAYER1
  6
CONTINUOUS
 62
     7
 10
2.4583
 20
3.1406
 30
0
 11
2.6111
 21
3.1406
 31
0
  0
LINE
  8
LAYER1
  6
CONTINUOUS
 62
     7
 10
2.4722
 20
3.1684
 30
0
 11
2.5972
 21
3.1684
 31
0
  0
LINE
  8
LAYER1
  6
CONTINUOUS
 62
     7
 10
2.4583
 20
3.1406
 30
0
 11
2.4583
 21
3.3073
 31
0
  0
LINE
  8
LAYER1
  6
CONTINUOUS
 62
     7
 10
2.6111
 20
3.1406
 30
0
 11
2.6111
 21
3.3073
 31
0
  0
LINE
  8
LAYER1
  6
CONTINUOUS
 62
     7
 10
2.4583
 20
3.3073
 30
0
 11
2.4861
 21
3.3351
 31
0
  0
LINE
  8
LAYER1
  6
CONTINUOUS
 62
     7
 10
2.6111
 20
3.3073
 30
0
 11
2.5833
 21
3.3351
 31
0
  0
ENDBLK
  8
LAYER1
  0
BLOCK
  8
LAYER1
  2
Group23
 70
     0
 10
0
 20
0
 30
0
  0
LINE
  8
LAYER1
  6
CONTINUOUS
 62
     7
 10
2.4861
 20
3.3351
 30
0
 11
2.5833
 21
3.3351
 31
0
  0
LINE
  8
LAYER1
  6
CONTINUOUS
 62
     7
 10
2.5
 20
3.0573
 30
0
 11
2.5556
 21
3.0573
 31
0
  0
LINE
  8
LAYER1
  6
CONTINUOUS
 62
     7
 10
2.4583
 20
3.1406
 30
0
 11
2.3611
 21
3.0295
 31
0
  0
POLYLINE
  8
LAYER1
  6
CONTINUOUS
 62
     7
 66
     1
 70
     0
 40
0.0039
 41
0.0039
  0
VERTEX
  8
LAYER1
 10
2.6111
 20
3.1406
 30
0
 70
     0
  0
VERTEX
  8
LAYER1
 10
2.6944
 20
3.0295
 30
0
 70
     0
  0
VERTEX
  8
LAYER1
 10
2.5556
 20
3.0295
 30
0
 70
     0
  0
SEQEND
  0
LINE
  8
LAYER1
  6
CONTINUOUS
 62
     7
 10
2.5556
 20
3.0573
 30
0
 11
2.5556
 21
2.9878
 31
0
  0
LINE
  8
LAYER1
  6
CONTINUOUS
 62
     7
 10
2.5
 20
2.9878
 30
0
 11
2.5
 21
3.0573
 31
0
  0
LINE
  8
LAYER1
  6
CONTINUOUS
 62
     7
 10
2.5
 20
3.0295
 30
0
 11
2.3611
 21
3.0295
 31
0
  0
POLYLINE
  8
LAYER1
  6
CONTINUOUS
 62
     7
 66
     1
 70
     0
 40
0.0039
 41
0.0039
  0
VERTEX
  8
LAYER1
 10
2.5
 20
2.9878
 30
0
 70
     0
  0
VERTEX
  8
LAYER1
 10
2.4861
 20
2.9878
 30
0
 70
     0
  0
VERTEX
  8
LAYER1
 10
2.4444
 20
2.9878
 30
0
 70
     0
  0
VERTEX
  8
LAYER1
 10
2.4167
 20
3.0017
 30
0
 70
     0
  0
VERTEX
  8
LAYER1
 10
2.375
 20
3.0156
 30
0
 70
     0
  0
VERTEX
  8
LAYER1
 10
2.3611
 20
3.0295
 30
0
 70
     0
  0
SEQEND
  0
POLYLINE
  8
LAYER1
  6
CONTINUOUS
 62
     7
 66
     1
 70
     0
 40
0.0039
 41
0.0039
  0
VERTEX
  8
LAYER1
 10
2.6944
 20
3.0295
 30
0
 70
     0
  0
VERTEX
  8
LAYER1
 10
2.6806
 20
3.0156
 30
0
 70
     0
  0
VERTEX
  8
LAYER1
 10
2.6389
 20
3.0017
 30
0
 70
     0
  0
VERTEX
  8
LAYER1
 10
2.6111
 20
2.9878
 30
0
 70
     0
  0
VERTEX
  8
LAYER1
 10
2.5833
 20
2.9878
 30
0
 70
     0
  0
VERTEX
  8
LAYER1
 10
2.5556
 20
2.9878
 30
0
 70
     0
  0
SEQEND
  0
ENDBLK
  8
LAYER1
  0
BLOCK
  8
LAYER1
  2
Group24
 70
     0
 10
0
 20
0
 30
0
  0
INSERT
  8
LAYER1
  2
Group22
 10
0
 20
0
 30
0
  0
INSERT
  8
LAYER1
  2
Group23
 10
0
 20
0
 30
0
  0
ENDBLK
  8
LAYER1
  0
BLOCK
  8
LAYER1
  2
Group25
 70
     0
 10
0
 20
0
 30
0
  0
POLYLINE
  8
LAYER1
  6
CONTINUOUS
 62
     7
 66
     1
 70
     0
 40
0.0039
 41
0.0039
  0
VERTEX
  8
LAYER1
 10
2.4722
 20
1.0156
 30
0
 70
     0
  0
VERTEX
  8
LAYER1
 10
2.4722
 20
1.0156
 30
0
 70
     0
  0
VERTEX
  8
LAYER1
 10
2.4583
 20
1.0295
 30
0
 70
     0
  0
VERTEX
  8
LAYER1
 10
2.4444
 20
1.0295
 30
0
 70
     0
  0
VERTEX
  8
LAYER1
 10
2.4444
 20
1.0295
 30
0
 70
     0
  0
VERTEX
  8
LAYER1
 10
2.4306
 20
1.0434
 30
0
 70
     0
  0
VERTEX
  8
LAYER1
 10
2.4306
 20
1.0573
 30
0
 70
     0
  0
SEQEND
  0
POLYLINE
  8
LAYER1
  6
CONTINUOUS
 62
     7
 66
     1
 70
     0
 40
0.0039
 41
0.0039
  0
VERTEX
  8
LAYER1
 10
2.5972
 20
1.2239
 30
0
 70
     0
  0
VERTEX
  8
LAYER1
 10
2.6111
 20
1.2101
 30
0
 70
     0
  0
VERTEX
  8
LAYER1
 10
2.625
 20
1.2101
 30
0
 70
     0
  0
VERTEX
  8
LAYER1
 10
2.625
 20
1.2101
 30
0
 70
     0
  0
VERTEX
  8
LAYER1
 10
2.625
 20
1.1962
 30
0
 70
     0
  0
VERTEX
  8
LAYER1
 10
2.6389
 20
1.1823
 30
0
 70
     0
  0
VERTEX
  8
LAYER1
 10
2.6389
 20
1.1823
 30
0
 70
     0
  0
SEQEND
  0
LINE
  8
LAYER1
  6
CONTINUOUS
 62
     7
 10
2.625
 20
1.2517
 30
0
 11
2.3889
 21
1.0295
 31
0
  0
LINE
  8
LAYER1
  6
CONTINUOUS
 62
     7
 10
2.6667
 20
1.2101
 30
0
 11
2.4306
 21
0.9878
 31
0
  0
POLYLINE
  8
LAYER1
  6
CONTINUOUS
 62
     7
 66
     1
 70
     0
 40
0.0039
 41
0.0039
  0
VERTEX
  8
LAYER1
 10
2.6667
 20
1.2101
 30
0
 70
     0
  0
VERTEX
  8
LAYER1
 10
2.6806
 20
1.1823
 30
0
 70
     0
  0
VERTEX
  8
LAYER1
 10
2.6944
 20
1.1406
 30
0
 70
     0
  0
VERTEX
  8
LAYER1
 10
2.6944
 20
1.1128
 30
0
 70
     0
  0
VERTEX
  8
LAYER1
 10
2.6944
 20
1.0989
 30
0
 70
     0
  0
VERTEX
  8
LAYER1
 10
2.6944
 20
1.0712
 30
0
 70
     0
  0
VERTEX
  8
LAYER1
 10
2.6806
 20
1.0434
 30
0
 70
     0
  0
VERTEX
  8
LAYER1
 10
2.6667
 20
1.0156
 30
0
 70
     0
  0
VERTEX
  8
LAYER1
 10
2.6528
 20
1.0017
 30
0
 70
     0
  0
VERTEX
  8
LAYER1
 10
2.6389
 20
0.9878
 30
0
 70
     0
  0
VERTEX
  8
LAYER1
 10
2.5972
 20
0.9601
 30
0
 70
     0
  0
VERTEX
  8
LAYER1
 10
2.5694
 20
0.9462
 30
0
 70
     0
  0
VERTEX
  8
LAYER1
 10
2.5417
 20
0.9462
 30
0
 70
     0
  0
VERTEX
  8
LAYER1
 10
2.5278
 20
0.9462
 30
0
 70
     0
  0
VERTEX
  8
LAYER1
 10
2.5139
 20
0.9462
 30
0
 70
     0
  0
VERTEX
  8
LAYER1
 10
2.5
 20
0.9462
 30
0
 70
     0
  0
VERTEX
  8
LAYER1
 10
2.4722
 20
0.9601
 30
0
 70
     0
  0
VERTEX
  8
LAYER1
 10
2.4444
 20
0.9739
 30
0
 70
     0
  0
VERTEX
  8
LAYER1
 10
2.4306
 20
0.9878
 30
0
 70
     0
  0
SEQEND
  0
POLYLINE
  8
LAYER1
  6
CONTINUOUS
 62
     7
 66
     1
 70
     0
 40
0.0039
 41
0.0039
  0
VERTEX
  8
LAYER1
 10
2.3889
 20
1.0295
 30
0
 70
     0
  0
VERTEX
  8
LAYER1
 10
2.375
 20
1.0434
 30
0
 70
     0
  0
VERTEX
  8
LAYER1
 10
2.3611
 20
1.0851
 30
0
 70
     0
  0
VERTEX
  8
LAYER1
 10
2.3611
 20
1.1128
 30
0
 70
     0
  0
VERTEX
  8
LAYER1
 10
2.3611
 20
1.1267
 30
0
 70
     0
  0
VERTEX
  8
LAYER1
 10
2.375
 20
1.1684
 30
0
 70
     0
  0
VERTEX
  8
LAYER1
 10
2.3889
 20
1.1962
 30
0
 70
     0
  0
VERTEX
  8
LAYER1
 10
2.4028
 20
1.2239
 30
0
 70
     0
  0
VERTEX
  8
LAYER1
 10
2.4167
 20
1.2378
 30
0
 70
     0
  0
VERTEX
  8
LAYER1
 10
2.4306
 20
1.2517
 30
0
 70
     0
  0
VERTEX
  8
LAYER1
 10
2.4444
 20
1.2656
 30
0
 70
     0
  0
VERTEX
  8
LAYER1
 10
2.4722
 20
1.2795
 30
0
 70
     0
  0
VERTEX
  8
LAYER1
 10
2.5139
 20
1.2934
 30
0
 70
     0
  0
VERTEX
  8
LAYER1
 10
2.5278
 20
1.2934
 30
0
 70
     0
  0
VERTEX
  8
LAYER1
 10
2.5417
 20
1.2934
 30
0
 70
     0
  0
VERTEX
  8
LAYER1
 10
2.5556
 20
1.2934
 30
0
 70
     0
  0
VERTEX
  8
LAYER1
 10
2.5833
 20
1.2795
 30
0
 70
     0
  0
VERTEX
  8
LAYER1
 10
2.6111
 20
1.2656
 30
0
 70
     0
  0
VERTEX
  8
LAYER1
 10
2.625
 20
1.2517
 30
0
 70
     0
  0
SEQEND
  0
ENDBLK
  8
LAYER1
  0
BLOCK
  8
LAYER1
  2
Group26
 70
     0
 10
0
 20
0
 30
0
  0
LINE
  8
LAYER1
  6
CONTINUOUS
 62
     7
 10
2.0694
 20
2.7517
 30
0
 11
2.1389
 21
2.7517
 31
0
  0
POLYLINE
  8
LAYER1
  6
CONTINUOUS
 62
     7
 66
     1
 70
     0
 40
0.0019
 41
0.0019
  0
VERTEX
  8
LAYER1
 10
2.0972
 20
2.5851
 30
0
 70
     0
  0
VERTEX
  8
LAYER1
 10
2.0972
 20
2.6267
 30
0
 70
     0
  0
VERTEX
  8
LAYER1
 10
2.125
 20
2.6267
 30
0
 70
     0
  0
VERTEX
  8
LAYER1
 10
2.125
 20
2.5851
 30
0
 70
     0
  0
SEQEND
  0
LINE
  8
LAYER1
  6
CONTINUOUS
 62
     7
 10
2.0694
 20
2.6545
 30
0
 11
2.0278
 21
2.6128
 31
0
  0
POLYLINE
  8
LAYER1
  6
CONTINUOUS
 62
     7
 66
     1
 70
     0
 40
0.0019
 41
0.0019
  0
VERTEX
  8
LAYER1
 10
2.1389
 20
2.6545
 30
0
 70
     0
  0
VERTEX
  8
LAYER1
 10
2.1806
 20
2.6128
 30
0
 70
     0
  0
VERTEX
  8
LAYER1
 10
2.125
 20
2.6128
 30
0
 70
     0
  0
SEQEND
  0
LINE
  8
LAYER1
  6
CONTINUOUS
 62
     7
 10
2.0972
 20
2.6128
 30
0
 11
2.0278
 21
2.6128
 31
0
  0
POLYLINE
  8
LAYER1
  6
CONTINUOUS
 62
     7
 66
     1
 70
     0
 40
0.0019
 41
0.0019
  0
VERTEX
  8
LAYER1
 10
2.0972
 20
2.5851
 30
0
 70
     0
  0
VERTEX
  8
LAYER1
 10
2.0833
 20
2.5851
 30
0
 70
     0
  0
VERTEX
  8
LAYER1
 10
2.0417
 20
2.5989
 30
0
 70
     0
  0
VERTEX
  8
LAYER1
 10
2.0278
 20
2.6128
 30
0
 70
     0
  0
SEQEND
  0
POLYLINE
  8
LAYER1
  6
CONTINUOUS
 62
     7
 66
     1
 70
     0
 40
0.0019
 41
0.0019
  0
VERTEX
  8
LAYER1
 10
2.1806
 20
2.6128
 30
0
 70
     0
  0
VERTEX
  8
LAYER1
 10
2.1667
 20
2.5989
 30
0
 70
     0
  0
VERTEX
  8
LAYER1
 10
2.1389
 20
2.5851
 30
0
 70
     0
  0
VERTEX
  8
LAYER1
 10
2.125
 20
2.5851
 30
0
 70
     0
  0
SEQEND
  0
ENDBLK
  8
LAYER1
  0
BLOCK
  8
LAYER1
  2
Group27
 70
     0
 10
0
 20
0
 30
0
  0
LINE
  8
LAYER1
  6
CONTINUOUS
 62
     7
 10
2.0694
 20
2.6684
 30
0
 11
2.1389
 21
2.6684
 31
0
  0
LINE
  8
LAYER1
  6
CONTINUOUS
 62
     7
 10
2.0694
 20
2.6823
 30
0
 11
2.1389
 21
2.6823
 31
0
  0
LINE
  8
LAYER1
  6
CONTINUOUS
 62
     7
 10
2.0694
 20
2.6962
 30
0
 11
2.1389
 21
2.6962
 31
0
  0
LINE
  8
LAYER1
  6
CONTINUOUS
 62
     7
 10
2.0694
 20
2.7239
 30
0
 11
2.1389
 21
2.7239
 31
0
  0
LINE
  8
LAYER1
  6
CONTINUOUS
 62
     7
 10
2.0694
 20
2.7656
 30
0
 11
2.1389
 21
2.7656
 31
0
  0
POLYLINE
  8
LAYER1
  6
CONTINUOUS
 62
     7
 66
     1
 70
     0
 40
0.0019
 41
0.0019
  0
VERTEX
  8
LAYER1
 10
2.0694
 20
2.6545
 30
0
 70
     0
  0
VERTEX
  8
LAYER1
 10
2.1389
 20
2.6545
 30
0
 70
     0
  0
VERTEX
  8
LAYER1
 10
2.1389
 20
2.7656
 30
0
 70
     0
  0
SEQEND
  0
POLYLINE
  8
LAYER1
  6
CONTINUOUS
 62
     7
 66
     1
 70
     0
 40
0.0019
 41
0.0019
  0
VERTEX
  8
LAYER1
 10
2.0694
 20
2.6545
 30
0
 70
     0
  0
VERTEX
  8
LAYER1
 10
2.0694
 20
2.7656
 30
0
 70
     0
  0
VERTEX
  8
LAYER1
 10
2.0833
 20
2.7795
 30
0
 70
     0
  0
VERTEX
  8
LAYER1
 10
2.125
 20
2.7795
 30
0
 70
     0
  0
SEQEND
  0
LINE
  8
LAYER1
  6
CONTINUOUS
 62
     7
 10
2.1389
 20
2.7656
 30
0
 11
2.125
 21
2.7795
 31
0
  0
LINE
  8
LAYER1
  6
CONTINUOUS
 62
     7
 10
2.0694
 20
2.7101
 30
0
 11
2.1389
 21
2.7101
 31
0
  0
INSERT
  8
LAYER1
  2
Group26
 10
0
 20
0
 30
0
  0
ENDBLK
  8
LAYER1
  0
BLOCK
  8
LAYER1
  2
Group28
 70
     0
 10
0
 20
0
 30
0
  0
POLYLINE
  8
LAYER1
  6
CONTINUOUS
 62
     7
 66
     1
 70
     0
 40
0.0039
 41
0.0039
  0
VERTEX
  8
LAYER1
 10
2.0833
 20
1.0712
 30
0
 70
     0
  0
VERTEX
  8
LAYER1
 10
2.0833
 20
1.0712
 30
0
 70
     0
  0
VERTEX
  8
LAYER1
 10
2.0694
 20
1.0712
 30
0
 70
     0
  0
VERTEX
  8
LAYER1
 10
2.0694
 20
1.0851
 30
0
 70
     0
  0
VERTEX
  8
LAYER1
 10
2.0694
 20
1.0851
 30
0
 70
     0
  0
SEQEND
  0
POLYLINE
  8
LAYER1
  6
CONTINUOUS
 62
     7
 66
     1
 70
     0
 40
0.0039
 41
0.0039
  0
VERTEX
  8
LAYER1
 10
2.1389
 20
1.1684
 30
0
 70
     0
  0
VERTEX
  8
LAYER1
 10
2.1528
 20
1.1545
 30
0
 70
     0
  0
VERTEX
  8
LAYER1
 10
2.1528
 20
1.1545
 30
0
 70
     0
  0
SEQEND
  0
LINE
  8
LAYER1
  6
CONTINUOUS
 62
     7
 10
2.1528
 20
1.1823
 30
0
 11
2.0417
 21
1.0712
 31
0
  0
LINE
  8
LAYER1
  6
CONTINUOUS
 62
     7
 10
2.1667
 20
1.1684
 30
0
 11
2.0694
 21
1.0573
 31
0
  0
POLYLINE
  8
LAYER1
  6
CONTINUOUS
 62
     7
 66
     1
 70
     0
 40
0.0039
 41
0.0039
  0
VERTEX
  8
LAYER1
 10
2.0417
 20
1.0712
 30
0
 70
     0
  0
VERTEX
  8
LAYER1
 10
2.0417
 20
1.0851
 30
0
 70
     0
  0
VERTEX
  8
LAYER1
 10
2.0278
 20
1.0989
 30
0
 70
     0
  0
VERTEX
  8
LAYER1
 10
2.0278
 20
1.1128
 30
0
 70
     0
  0
VERTEX
  8
LAYER1
 10
2.0278
 20
1.1267
 30
0
 70
     0
  0
VERTEX
  8
LAYER1
 10
2.0417
 20
1.1545
 30
0
 70
     0
  0
VERTEX
  8
LAYER1
 10
2.0556
 20
1.1684
 30
0
 70
     0
  0
VERTEX
  8
LAYER1
 10
2.0694
 20
1.1823
 30
0
 70
     0
  0
VERTEX
  8
LAYER1
 10
2.0972
 20
1.1962
 30
0
 70
     0
  0
VERTEX
  8
LAYER1
 10
2.1111
 20
1.1962
 30
0
 70
     0
  0
VERTEX
  8
LAYER1
 10
2.125
 20
1.1962
 30
0
 70
     0
  0
VERTEX
  8
LAYER1
 10
2.1528
 20
1.1823
 30
0
 70
     0
  0
VERTEX
  8
LAYER1
 10
2.1528
 20
1.1823
 30
0
 70
     0
  0
SEQEND
  0
POLYLINE
  8
LAYER1
  6
CONTINUOUS
 62
     7
 66
     1
 70
     0
 40
0.0039
 41
0.0039
  0
VERTEX
  8
LAYER1
 10
2.1667
 20
1.1684
 30
0
 70
     0
  0
VERTEX
  8
LAYER1
 10
2.1806
 20
1.1545
 30
0
 70
     0
  0
VERTEX
  8
LAYER1
 10
2.1806
 20
1.1267
 30
0
 70
     0
  0
VERTEX
  8
LAYER1
 10
2.1806
 20
1.1128
 30
0
 70
     0
  0
VERTEX
  8
LAYER1
 10
2.1806
 20
1.0989
 30
0
 70
     0
  0
VERTEX
  8
LAYER1
 10
2.1806
 20
1.0712
 30
0
 70
     0
  0
VERTEX
  8
LAYER1
 10
2.1667
 20
1.0573
 30
0
 70
     0
  0
VERTEX
  8
LAYER1
 10
2.1528
 20
1.0434
 30
0
 70
     0
  0
VERTEX
  8
LAYER1
 10
2.125
 20
1.0434
 30
0
 70
     0
  0
VERTEX
  8
LAYER1
 10
2.1111
 20
1.0434
 30
0
 70
     0
  0
VERTEX
  8
LAYER1
 10
2.0972
 20
1.0434
 30
0
 70
     0
  0
VERTEX
  8
LAYER1
 10
2.0833
 20
1.0434
 30
0
 70
     0
  0
VERTEX
  8
LAYER1
 10
2.0694
 20
1.0573
 30
0
 70
     0
  0
SEQEND
  0
ENDBLK
  8
LAYER1
  0
BLOCK
  8
LAYER1
  2
Group29
 70
     0
 10
0
 20
0
 30
0
  0
LINE
  8
LAYER1
  6
CONTINUOUS
 62
     7
 10
5.0139
 20
7.3073
 30
0
 11
5.4167
 21
7.3073
 31
0
  0
LINE
  8
LAYER1
  6
CONTINUOUS
 62
     7
 10
5.0556
 20
7.2795
 30
0
 11
5.375
 21
7.2795
 31
0
  0
LINE
  8
LAYER1
  6
CONTINUOUS
 62
     7
 10
5.0139
 20
7.2517
 30
0
 11
5.4167
 21
7.2517
 31
0
  0
LINE
  8
LAYER1
  6
CONTINUOUS
 62
     7
 10
5.0556
 20
7.2239
 30
0
 11
5.375
 21
7.2239
 31
0
  0
LINE
  8
LAYER1
  6
CONTINUOUS
 62
     7
 10
5.0139
 20
7.1823
 30
0
 11
5.4167
 21
7.1823
 31
0
  0
LINE
  8
LAYER1
  6
CONTINUOUS
 62
     7
 10
5.0556
 20
7.1545
 30
0
 11
5.375
 21
7.1545
 31
0
  0
LINE
  8
LAYER1
  6
CONTINUOUS
 62
     7
 10
5.0139
 20
7.1267
 30
0
 11
5.4167
 21
7.1267
 31
0
  0
LINE
  8
LAYER1
  6
CONTINUOUS
 62
     7
 10
5.0556
 20
7.0989
 30
0
 11
5.375
 21
7.0989
 31
0
  0
LINE
  8
LAYER1
  6
CONTINUOUS
 62
     7
 10
5.0139
 20
7.0712
 30
0
 11
5.4167
 21
7.0712
 31
0
  0
LINE
  8
LAYER1
  6
CONTINUOUS
 62
     7
 10
5.0556
 20
7.0434
 30
0
 11
5.375
 21
7.0434
 31
0
  0
LINE
  8
LAYER1
  6
CONTINUOUS
 62
     7
 10
5.0139
 20
7.0156
 30
0
 11
5.4167
 21
7.0156
 31
0
  0
LINE
  8
LAYER1
  6
CONTINUOUS
 62
     7
 10
5.0556
 20
6.9878
 30
0
 11
5.375
 21
6.9878
 31
0
  0
LINE
  8
LAYER1
  6
CONTINUOUS
 62
     7
 10
5.0139
 20
6.9462
 30
0
 11
5.4167
 21
6.9462
 31
0
  0
LINE
  8
LAYER1
  6
CONTINUOUS
 62
     7
 10
5.0556
 20
6.9184
 30
0
 11
5.375
 21
6.9184
 31
0
  0
LINE
  8
LAYER1
  6
CONTINUOUS
 62
     7
 10
5.0139
 20
6.8906
 30
0
 11
5.4167
 21
6.8906
 31
0
  0
LINE
  8
LAYER1
  6
CONTINUOUS
 62
     7
 10
5.0556
 20
6.8628
 30
0
 11
5.375
 21
6.8628
 31
0
  0
LINE
  8
LAYER1
  6
CONTINUOUS
 62
     7
 10
5.0139
 20
6.8351
 30
0
 11
5.4167
 21
6.8351
 31
0
  0
LINE
  8
LAYER1
  6
CONTINUOUS
 62
     7
 10
5.0556
 20
6.8073
 30
0
 11
5.375
 21
6.8073
 31
0
  0
LINE
  8
LAYER1
  6
CONTINUOUS
 62
     7
 10
5.0139
 20
7.3073
 30
0
 11
5.0417
 21
7.3351
 31
0
  0
LINE
  8
LAYER1
  6
CONTINUOUS
 62
     7
 10
5.4167
 20
7.3073
 30
0
 11
5.375
 21
7.3351
 31
0
  0
LINE
  8
LAYER1
  6
CONTINUOUS
 62
     7
 10
5.0417
 20
7.3351
 30
0
 11
5.375
 21
7.3351
 31
0
  0
LINE
  8
LAYER1
  6
CONTINUOUS
 62
     7
 10
5.0139
 20
6.7795
 30
0
 11
5.4167
 21
6.7795
 31
0
  0
LINE
  8
LAYER1
  6
CONTINUOUS
 62
     7
 10
5.0556
 20
6.7517
 30
0
 11
5.375
 21
6.7517
 31
0
  0
LINE
  8
LAYER1
  6
CONTINUOUS
 62
     7
 10
5.0139
 20
6.7101
 30
0
 11
5.4167
 21
6.7101
 31
0
  0
LINE
  8
LAYER1
  6
CONTINUOUS
 62
     7
 10
5.0139
 20
6.7101
 30
0
 11
5.0139
 21
7.3073
 31
0
  0
ENDBLK
  8
LAYER1
  0
BLOCK
  8
LAYER1
  2
Group30
 70
     0
 10
0
 20
0
 30
0
  0
LINE
  8
LAYER1
  6
CONTINUOUS
 62
     7
 10
5.4167
 20
6.7101
 30
0
 11
5.4167
 21
7.3073
 31
0
  0
LINE
  8
LAYER1
  6
CONTINUOUS
 62
     7
 10
5.0139
 20
6.7101
 30
0
 11
4.8472
 21
6.5017
 31
0
  0
LINE
  8
LAYER1
  6
CONTINUOUS
 62
     7
 10
5.4167
 20
6.7101
 30
0
 11
5.5694
 21
6.5017
 31
0
  0
POLYLINE
  8
LAYER1
  6
CONTINUOUS
 62
     7
 66
     1
 70
     0
 40
0.0039
 41
0.0039
  0
VERTEX
  8
LAYER1
 10
5.1667
 20
6.4045
 30
0
 70
     0
  0
VERTEX
  8
LAYER1
 10
5.1667
 20
6.5989
 30
0
 70
     0
  0
VERTEX
  8
LAYER1
 10
5.2639
 20
6.5989
 30
0
 70
     0
  0
VERTEX
  8
LAYER1
 10
5.2639
 20
6.4045
 30
0
 70
     0
  0
SEQEND
  0
LINE
  8
LAYER1
  6
CONTINUOUS
 62
     7
 10
5.5694
 20
6.5017
 30
0
 11
5.2639
 21
6.5017
 31
0
  0
LINE
  8
LAYER1
  6
CONTINUOUS
 62
     7
 10
5.1667
 20
6.5017
 30
0
 11
4.8472
 21
6.5017
 31
0
  0
POLYLINE
  8
LAYER1
  6
CONTINUOUS
 62
     7
 66
     1
 70
     0
 40
0.0039
 41
0.0039
  0
VERTEX
  8
LAYER1
 10
5.1528
 20
6.4045
 30
0
 70
     0
  0
VERTEX
  8
LAYER1
 10
5.1111
 20
6.4045
 30
0
 70
     0
  0
VERTEX
  8
LAYER1
 10
5.0417
 20
6.4184
 30
0
 70
     0
  0
VERTEX
  8
LAYER1
 10
4.9583
 20
6.4462
 30
0
 70
     0
  0
VERTEX
  8
LAYER1
 10
4.8889
 20
6.4739
 30
0
 70
     0
  0
VERTEX
  8
LAYER1
 10
4.8472
 20
6.5017
 30
0
 70
     0
  0
SEQEND
  0
POLYLINE
  8
LAYER1
  6
CONTINUOUS
 62
     7
 66
     1
 70
     0
 40
0.0039
 41
0.0039
  0
VERTEX
  8
LAYER1
 10
5.5694
 20
6.5017
 30
0
 70
     0
  0
VERTEX
  8
LAYER1
 10
5.5278
 20
6.4739
 30
0
 70
     0
  0
VERTEX
  8
LAYER1
 10
5.4583
 20
6.4462
 30
0
 70
     0
  0
VERTEX
  8
LAYER1
 10
5.3889
 20
6.4184
 30
0
 70
     0
  0
VERTEX
  8
LAYER1
 10
5.3056
 20
6.4045
 30
0
 70
     0
  0
VERTEX
  8
LAYER1
 10
5.2778
 20
6.4045
 30
0
 70
     0
  0
SEQEND
  0
ENDBLK
  8
LAYER1
  0
BLOCK
  8
LAYER1
  2
Group31
 70
     0
 10
0
 20
0
 30
0
  0
INSERT
  8
LAYER1
  2
Group29
 10
0
 20
0
 30
0
  0
INSERT
  8
LAYER1
  2
Group30
 10
0
 20
0
 30
0
  0
ENDBLK
  8
LAYER1
  0
BLOCK
  8
LAYER1
  2
Group32
 70
     0
 10
0
 20
0
 30
0
  0
LINE
  8
LAYER1
  6
CONTINUOUS
 62
     7
 10
5.0139
 20
8.4462
 30
0
 11
5.4167
 21
8.4462
 31
0
  0
LINE
  8
LAYER1
  6
CONTINUOUS
 62
     7
 10
5.0556
 20
8.4184
 30
0
 11
5.375
 21
8.4184
 31
0
  0
LINE
  8
LAYER1
  6
CONTINUOUS
 62
     7
 10
5.0139
 20
8.3906
 30
0
 11
5.4167
 21
8.3906
 31
0
  0
LINE
  8
LAYER1
  6
CONTINUOUS
 62
     7
 10
5.0556
 20
8.3628
 30
0
 11
5.375
 21
8.3628
 31
0
  0
LINE
  8
LAYER1
  6
CONTINUOUS
 62
     7
 10
5.0139
 20
8.3351
 30
0
 11
5.4167
 21
8.3351
 31
0
  0
LINE
  8
LAYER1
  6
CONTINUOUS
 62
     7
 10
5.0556
 20
8.3073
 30
0
 11
5.375
 21
8.3073
 31
0
  0
LINE
  8
LAYER1
  6
CONTINUOUS
 62
     7
 10
5.0139
 20
8.2656
 30
0
 11
5.4167
 21
8.2656
 31
0
  0
LINE
  8
LAYER1
  6
CONTINUOUS
 62
     7
 10
5.0556
 20
8.2378
 30
0
 11
5.375
 21
8.2378
 31
0
  0
LINE
  8
LAYER1
  6
CONTINUOUS
 62
     7
 10
5.0139
 20
8.2101
 30
0
 11
5.4167
 21
8.2101
 31
0
  0
LINE
  8
LAYER1
  6
CONTINUOUS
 62
     7
 10
5.0556
 20
8.1823
 30
0
 11
5.375
 21
8.1823
 31
0
  0
LINE
  8
LAYER1
  6
CONTINUOUS
 62
     7
 10
5.0139
 20
8.1545
 30
0
 11
5.4167
 21
8.1545
 31
0
  0
LINE
  8
LAYER1
  6
CONTINUOUS
 62
     7
 10
5.0556
 20
8.1267
 30
0
 11
5.375
 21
8.1267
 31
0
  0
LINE
  8
LAYER1
  6
CONTINUOUS
 62
     7
 10
5.0139
 20
8.0989
 30
0
 11
5.4167
 21
8.0989
 31
0
  0
LINE
  8
LAYER1
  6
CONTINUOUS
 62
     7
 10
5.0556
 20
8.0712
 30
0
 11
5.375
 21
8.0712
 31
0
  0
LINE
  8
LAYER1
  6
CONTINUOUS
 62
     7
 10
5.0139
 20
8.0295
 30
0
 11
5.4167
 21
8.0295
 31
0
  0
LINE
  8
LAYER1
  6
CONTINUOUS
 62
     7
 10
5.0556
 20
8.0017
 30
0
 11
5.375
 21
8.0017
 31
0
  0
LINE
  8
LAYER1
  6
CONTINUOUS
 62
     7
 10
5.0139
 20
7.9739
 30
0
 11
5.4167
 21
7.9739
 31
0
  0
LINE
  8
LAYER1
  6
CONTINUOUS
 62
     7
 10
5.0556
 20
7.9462
 30
0
 11
5.375
 21
7.9462
 31
0
  0
LINE
  8
LAYER1
  6
CONTINUOUS
 62
     7
 10
5.0139
 20
8.4462
 30
0
 11
5.0417
 21
8.4739
 31
0
  0
LINE
  8
LAYER1
  6
CONTINUOUS
 62
     7
 10
5.4167
 20
8.4462
 30
0
 11
5.375
 21
8.4739
 31
0
  0
LINE
  8
LAYER1
  6
CONTINUOUS
 62
     7
 10
5.0417
 20
8.4739
 30
0
 11
5.375
 21
8.4739
 31
0
  0
LINE
  8
LAYER1
  6
CONTINUOUS
 62
     7
 10
5.0139
 20
7.9184
 30
0
 11
5.4167
 21
7.9184
 31
0
  0
LINE
  8
LAYER1
  6
CONTINUOUS
 62
     7
 10
5.0556
 20
7.8906
 30
0
 11
5.375
 21
7.8906
 31
0
  0
LINE
  8
LAYER1
  6
CONTINUOUS
 62
     7
 10
5.0139
 20
7.8628
 30
0
 11
5.4167
 21
7.8628
 31
0
  0
LINE
  8
LAYER1
  6
CONTINUOUS
 62
     7
 10
5.0556
 20
7.8351
 30
0
 11
5.375
 21
7.8351
 31
0
  0
LINE
  8
LAYER1
  6
CONTINUOUS
 62
     7
 10
5.0139
 20
7.7934
 30
0
 11
5.4167
 21
7.7934
 31
0
  0
LINE
  8
LAYER1
  6
CONTINUOUS
 62
     7
 10
5.0556
 20
7.7656
 30
0
 11
5.375
 21
7.7656
 31
0
  0
LINE
  8
LAYER1
  6
CONTINUOUS
 62
     7
 10
5.0139
 20
7.7378
 30
0
 11
5.4167
 21
7.7378
 31
0
  0
LINE
  8
LAYER1
  6
CONTINUOUS
 62
     7
 10
5.0556
 20
7.7101
 30
0
 11
5.375
 21
7.7101
 31
0
  0
LINE
  8
LAYER1
  6
CONTINUOUS
 62
     7
 10
5.0139
 20
7.6962
 30
0
 11
5.4167
 21
7.6962
 31
0
  0
LINE
  8
LAYER1
  6
CONTINUOUS
 62
     7
 10
5.0139
 20
7.6962
 30
0
 11
5.0139
 21
8.4462
 31
0
  0
ENDBLK
  8
LAYER1
  0
BLOCK
  8
LAYER1
  2
Group33
 70
     0
 10
0
 20
0
 30
0
  0
LINE
  8
LAYER1
  6
CONTINUOUS
 62
     7
 10
5.4167
 20
7.6962
 30
0
 11
5.4167
 21
8.4462
 31
0
  0
LINE
  8
LAYER1
  6
CONTINUOUS
 62
     7
 10
5.0139
 20
7.6962
 30
0
 11
4.8472
 21
7.5017
 31
0
  0
LINE
  8
LAYER1
  6
CONTINUOUS
 62
     7
 10
5.4167
 20
7.6962
 30
0
 11
5.5694
 21
7.5017
 31
0
  0
POLYLINE
  8
LAYER1
  6
CONTINUOUS
 62
     7
 66
     1
 70
     0
 40
0.0039
 41
0.0039
  0
VERTEX
  8
LAYER1
 10
5.1667
 20
7.3906
 30
0
 70
     0
  0
VERTEX
  8
LAYER1
 10
5.1667
 20
7.5989
 30
0
 70
     0
  0
VERTEX
  8
LAYER1
 10
5.2639
 20
7.5989
 30
0
 70
     0
  0
VERTEX
  8
LAYER1
 10
5.2639
 20
7.3906
 30
0
 70
     0
  0
SEQEND
  0
LINE
  8
LAYER1
  6
CONTINUOUS
 62
     7
 10
5.5694
 20
7.5017
 30
0
 11
5.2639
 21
7.5017
 31
0
  0
LINE
  8
LAYER1
  6
CONTINUOUS
 62
     7
 10
5.1667
 20
7.5017
 30
0
 11
4.8472
 21
7.5017
 31
0
  0
POLYLINE
  8
LAYER1
  6
CONTINUOUS
 62
     7
 66
     1
 70
     0
 40
0.0039
 41
0.0039
  0
VERTEX
  8
LAYER1
 10
5.1528
 20
7.3906
 30
0
 70
     0
  0
VERTEX
  8
LAYER1
 10
5.1111
 20
7.3906
 30
0
 70
     0
  0
VERTEX
  8
LAYER1
 10
5.0417
 20
7.4045
 30
0
 70
     0
  0
VERTEX
  8
LAYER1
 10
4.9583
 20
7.4323
 30
0
 70
     0
  0
VERTEX
  8
LAYER1
 10
4.8889
 20
7.4739
 30
0
 70
     0
  0
VERTEX
  8
LAYER1
 10
4.8472
 20
7.5017
 30
0
 70
     0
  0
SEQEND
  0
POLYLINE
  8
LAYER1
  6
CONTINUOUS
 62
     7
 66
     1
 70
     0
 40
0.0039
 41
0.0039
  0
VERTEX
  8
LAYER1
 10
5.5694
 20
7.5017
 30
0
 70
     0
  0
VERTEX
  8
LAYER1
 10
5.5278
 20
7.4739
 30
0
 70
     0
  0
VERTEX
  8
LAYER1
 10
5.4583
 20
7.4323
 30
0
 70
     0
  0
VERTEX
  8
LAYER1
 10
5.3889
 20
7.4045
 30
0
 70
     0
  0
VERTEX
  8
LAYER1
 10
5.3056
 20
7.3906
 30
0
 70
     0
  0
VERTEX
  8
LAYER1
 10
5.2778
 20
7.3906
 30
0
 70
     0
  0
SEQEND
  0
ENDBLK
  8
LAYER1
  0
BLOCK
  8
LAYER1
  2
Group34
 70
     0
 10
0
 20
0
 30
0
  0
INSERT
  8
LAYER1
  2
Group32
 10
0
 20
0
 30
0
  0
INSERT
  8
LAYER1
  2
Group33
 10
0
 20
0
 30
0
  0
ENDBLK
  8
LAYER1
  0
BLOCK
  8
LAYER1
  2
Group35
 70
     0
 10
0
 20
0
 30
0
  0
LINE
  8
LAYER1
  6
CONTINUOUS
 62
     7
 10
5.0139
 20
9.7656
 30
0
 11
5.4167
 21
9.7656
 31
0
  0
LINE
  8
LAYER1
  6
CONTINUOUS
 62
     7
 10
5.0556
 20
9.7378
 30
0
 11
5.375
 21
9.7378
 31
0
  0
LINE
  8
LAYER1
  6
CONTINUOUS
 62
     7
 10
5.0139
 20
9.7101
 30
0
 11
5.4167
 21
9.7101
 31
0
  0
LINE
  8
LAYER1
  6
CONTINUOUS
 62
     7
 10
5.0556
 20
9.6823
 30
0
 11
5.375
 21
9.6823
 31
0
  0
LINE
  8
LAYER1
  6
CONTINUOUS
 62
     7
 10
5.0139
 20
9.6545
 30
0
 11
5.4167
 21
9.6545
 31
0
  0
LINE
  8
LAYER1
  6
CONTINUOUS
 62
     7
 10
5.0556
 20
9.6267
 30
0
 11
5.375
 21
9.6267
 31
0
  0
LINE
  8
LAYER1
  6
CONTINUOUS
 62
     7
 10
5.0139
 20
9.5989
 30
0
 11
5.4167
 21
9.5989
 31
0
  0
LINE
  8
LAYER1
  6
CONTINUOUS
 62
     7
 10
5.0556
 20
9.5712
 30
0
 11
5.375
 21
9.5712
 31
0
  0
LINE
  8
LAYER1
  6
CONTINUOUS
 62
     7
 10
5.0139
 20
9.5295
 30
0
 11
5.4167
 21
9.5295
 31
0
  0
LINE
  8
LAYER1
  6
CONTINUOUS
 62
     7
 10
5.0556
 20
9.5017
 30
0
 11
5.375
 21
9.5017
 31
0
  0
LINE
  8
LAYER1
  6
CONTINUOUS
 62
     7
 10
5.0139
 20
9.4739
 30
0
 11
5.4167
 21
9.4739
 31
0
  0
LINE
  8
LAYER1
  6
CONTINUOUS
 62
     7
 10
5.0556
 20
9.4462
 30
0
 11
5.375
 21
9.4462
 31
0
  0
LINE
  8
LAYER1
  6
CONTINUOUS
 62
     7
 10
5.0139
 20
9.4184
 30
0
 11
5.4167
 21
9.4184
 31
0
  0
LINE
  8
LAYER1
  6
CONTINUOUS
 62
     7
 10
5.0556
 20
9.3906
 30
0
 11
5.375
 21
9.3906
 31
0
  0
LINE
  8
LAYER1
  6
CONTINUOUS
 62
     7
 10
5.0139
 20
9.3628
 30
0
 11
5.4167
 21
9.3628
 31
0
  0
LINE
  8
LAYER1
  6
CONTINUOUS
 62
     7
 10
5.0556
 20
9.3351
 30
0
 11
5.375
 21
9.3351
 31
0
  0
LINE
  8
LAYER1
  6
CONTINUOUS
 62
     7
 10
5.0139
 20
9.2934
 30
0
 11
5.4167
 21
9.2934
 31
0
  0
LINE
  8
LAYER1
  6
CONTINUOUS
 62
     7
 10
5.0556
 20
9.2656
 30
0
 11
5.375
 21
9.2656
 31
0
  0
LINE
  8
LAYER1
  6
CONTINUOUS
 62
     7
 10
5.0139
 20
9.7656
 30
0
 11
5.0417
 21
9.8073
 31
0
  0
LINE
  8
LAYER1
  6
CONTINUOUS
 62
     7
 10
5.4167
 20
9.7656
 30
0
 11
5.375
 21
9.8073
 31
0
  0
LINE
  8
LAYER1
  6
CONTINUOUS
 62
     7
 10
5.0417
 20
9.8073
 30
0
 11
5.375
 21
9.8073
 31
0
  0
LINE
  8
LAYER1
  6
CONTINUOUS
 62
     7
 10
5.0139
 20
9.2378
 30
0
 11
5.4167
 21
9.2378
 31
0
  0
LINE
  8
LAYER1
  6
CONTINUOUS
 62
     7
 10
5.0556
 20
9.2101
 30
0
 11
5.375
 21
9.2101
 31
0
  0
LINE
  8
LAYER1
  6
CONTINUOUS
 62
     7
 10
5.0139
 20
9.1823
 30
0
 11
5.4167
 21
9.1823
 31
0
  0
LINE
  8
LAYER1
  6
CONTINUOUS
 62
     7
 10
5.0556
 20
9.1545
 30
0
 11
5.375
 21
9.1545
 31
0
  0
LINE
  8
LAYER1
  6
CONTINUOUS
 62
     7
 10
5.0139
 20
9.1267
 30
0
 11
5.4167
 21
9.1267
 31
0
  0
LINE
  8
LAYER1
  6
CONTINUOUS
 62
     7
 10
5.0556
 20
9.0989
 30
0
 11
5.375
 21
9.0989
 31
0
  0
LINE
  8
LAYER1
  6
CONTINUOUS
 62
     7
 10
5.0139
 20
9.0573
 30
0
 11
5.4167
 21
9.0573
 31
0
  0
LINE
  8
LAYER1
  6
CONTINUOUS
 62
     7
 10
5.0556
 20
9.0295
 30
0
 11
5.375
 21
9.0295
 31
0
  0
LINE
  8
LAYER1
  6
CONTINUOUS
 62
     7
 10
5.0139
 20
9.0017
 30
0
 11
5.4167
 21
9.0017
 31
0
  0
LINE
  8
LAYER1
  6
CONTINUOUS
 62
     7
 10
5.0556
 20
8.9739
 30
0
 11
5.375
 21
8.9739
 31
0
  0
LINE
  8
LAYER1
  6
CONTINUOUS
 62
     7
 10
5.0139
 20
8.9462
 30
0
 11
5.4167
 21
8.9462
 31
0
  0
LINE
  8
LAYER1
  6
CONTINUOUS
 62
     7
 10
5.0556
 20
8.9184
 30
0
 11
5.375
 21
8.9184
 31
0
  0
LINE
  8
LAYER1
  6
CONTINUOUS
 62
     7
 10
5.0139
 20
8.8906
 30
0
 11
5.4167
 21
8.8906
 31
0
  0
LINE
  8
LAYER1
  6
CONTINUOUS
 62
     7
 10
5.0139
 20
8.8628
 30
0
 11
5.4167
 21
8.8628
 31
0
  0
LINE
  8
LAYER1
  6
CONTINUOUS
 62
     7
 10
5.0139
 20
8.8628
 30
0
 11
5.0139
 21
9.7656
 31
0
  0
ENDBLK
  8
LAYER1
  0
BLOCK
  8
LAYER1
  2
Group36
 70
     0
 10
0
 20
0
 30
0
  0
LINE
  8
LAYER1
  6
CONTINUOUS
 62
     7
 10
5.4167
 20
8.8628
 30
0
 11
5.4167
 21
9.7656
 31
0
  0
LINE
  8
LAYER1
  6
CONTINUOUS
 62
     7
 10
5.0139
 20
8.8628
 30
0
 11
4.8472
 21
8.6545
 31
0
  0
LINE
  8
LAYER1
  6
CONTINUOUS
 62
     7
 10
5.4167
 20
8.8628
 30
0
 11
5.5694
 21
8.6545
 31
0
  0
POLYLINE
  8
LAYER1
  6
CONTINUOUS
 62
     7
 66
     1
 70
     0
 40
0.0039
 41
0.0039
  0
VERTEX
  8
LAYER1
 10
5.1667
 20
8.5573
 30
0
 70
     0
  0
VERTEX
  8
LAYER1
 10
5.1667
 20
8.7656
 30
0
 70
     0
  0
VERTEX
  8
LAYER1
 10
5.2639
 20
8.7656
 30
0
 70
     0
  0
VERTEX
  8
LAYER1
 10
5.2639
 20
8.5573
 30
0
 70
     0
  0
SEQEND
  0
LINE
  8
LAYER1
  6
CONTINUOUS
 62
     7
 10
5.5694
 20
8.6545
 30
0
 11
5.2639
 21
8.6545
 31
0
  0
LINE
  8
LAYER1
  6
CONTINUOUS
 62
     7
 10
5.1667
 20
8.6545
 30
0
 11
4.8472
 21
8.6545
 31
0
  0
POLYLINE
  8
LAYER1
  6
CONTINUOUS
 62
     7
 66
     1
 70
     0
 40
0.0039
 41
0.0039
  0
VERTEX
  8
LAYER1
 10
5.1528
 20
8.5573
 30
0
 70
     0
  0
VERTEX
  8
LAYER1
 10
5.1111
 20
8.5573
 30
0
 70
     0
  0
VERTEX
  8
LAYER1
 10
5.0417
 20
8.5712
 30
0
 70
     0
  0
VERTEX
  8
LAYER1
 10
4.9583
 20
8.5989
 30
0
 70
     0
  0
VERTEX
  8
LAYER1
 10
4.8889
 20
8.6267
 30
0
 70
     0
  0
VERTEX
  8
LAYER1
 10
4.8472
 20
8.6545
 30
0
 70
     0
  0
SEQEND
  0
POLYLINE
  8
LAYER1
  6
CONTINUOUS
 62
     7
 66
     1
 70
     0
 40
0.0039
 41
0.0039
  0
VERTEX
  8
LAYER1
 10
5.5694
 20
8.6545
 30
0
 70
     0
  0
VERTEX
  8
LAYER1
 10
5.5278
 20
8.6267
 30
0
 70
     0
  0
VERTEX
  8
LAYER1
 10
5.4583
 20
8.5989
 30
0
 70
     0
  0
VERTEX
  8
LAYER1
 10
5.3889
 20
8.5712
 30
0
 70
     0
  0
VERTEX
  8
LAYER1
 10
5.3056
 20
8.5573
 30
0
 70
     0
  0
VERTEX
  8
LAYER1
 10
5.2778
 20
8.5573
 30
0
 70
     0
  0
SEQEND
  0
ENDBLK
  8
LAYER1
  0
BLOCK
  8
LAYER1
  2
Group37
 70
     0
 10
0
 20
0
 30
0
  0
INSERT
  8
LAYER1
  2
Group35
 10
0
 20
0
 30
0
  0
INSERT
  8
LAYER1
  2
Group36
 10
0
 20
0
 30
0
  0
ENDBLK
  8
LAYER1
  0
BLOCK
  8
LAYER1
  2
Group38
 70
     0
 10
0
 20
0
 30
0
  0
LINE
  8
LAYER1
  6
CONTINUOUS
 62
     7
 10
13.2361
 20
4.0434
 30
0
 11
13.625
 21
4.0434
 31
0
  0
LINE
  8
LAYER1
  6
CONTINUOUS
 62
     7
 10
13.2639
 20
4.0156
 30
0
 11
13.5833
 21
4.0156
 31
0
  0
LINE
  8
LAYER1
  6
CONTINUOUS
 62
     7
 10
13.2361
 20
3.9878
 30
0
 11
13.625
 21
3.9878
 31
0
  0
LINE
  8
LAYER1
  6
CONTINUOUS
 62
     7
 10
13.2639
 20
3.9601
 30
0
 11
13.5833
 21
3.9601
 31
0
  0
LINE
  8
LAYER1
  6
CONTINUOUS
 62
     7
 10
13.2361
 20
3.9184
 30
0
 11
13.625
 21
3.9184
 31
0
  0
LINE
  8
LAYER1
  6
CONTINUOUS
 62
     7
 10
13.2639
 20
3.8906
 30
0
 11
13.5833
 21
3.8906
 31
0
  0
LINE
  8
LAYER1
  6
CONTINUOUS
 62
     7
 10
13.2361
 20
3.8628
 30
0
 11
13.625
 21
3.8628
 31
0
  0
LINE
  8
LAYER1
  6
CONTINUOUS
 62
     7
 10
13.2639
 20
3.8351
 30
0
 11
13.5833
 21
3.8351
 31
0
  0
LINE
  8
LAYER1
  6
CONTINUOUS
 62
     7
 10
13.2361
 20
3.8073
 30
0
 11
13.625
 21
3.8073
 31
0
  0
LINE
  8
LAYER1
  6
CONTINUOUS
 62
     7
 10
13.2639
 20
3.7795
 30
0
 11
13.5833
 21
3.7795
 31
0
  0
LINE
  8
LAYER1
  6
CONTINUOUS
 62
     7
 10
13.2361
 20
3.7517
 30
0
 11
13.625
 21
3.7517
 31
0
  0
LINE
  8
LAYER1
  6
CONTINUOUS
 62
     7
 10
13.2639
 20
3.7239
 30
0
 11
13.5833
 21
3.7239
 31
0
  0
LINE
  8
LAYER1
  6
CONTINUOUS
 62
     7
 10
13.2361
 20
3.6823
 30
0
 11
13.625
 21
3.6823
 31
0
  0
LINE
  8
LAYER1
  6
CONTINUOUS
 62
     7
 10
13.2639
 20
3.6545
 30
0
 11
13.5833
 21
3.6545
 31
0
  0
LINE
  8
LAYER1
  6
CONTINUOUS
 62
     7
 10
13.2361
 20
3.6267
 30
0
 11
13.625
 21
3.6267
 31
0
  0
LINE
  8
LAYER1
  6
CONTINUOUS
 62
     7
 10
13.2639
 20
3.5989
 30
0
 11
13.5833
 21
3.5989
 31
0
  0
LINE
  8
LAYER1
  6
CONTINUOUS
 62
     7
 10
13.2361
 20
3.5712
 30
0
 11
13.625
 21
3.5712
 31
0
  0
LINE
  8
LAYER1
  6
CONTINUOUS
 62
     7
 10
13.2639
 20
3.5434
 30
0
 11
13.5833
 21
3.5434
 31
0
  0
LINE
  8
LAYER1
  6
CONTINUOUS
 62
     7
 10
13.2361
 20
4.0434
 30
0
 11
13.2639
 21
4.0712
 31
0
  0
LINE
  8
LAYER1
  6
CONTINUOUS
 62
     7
 10
13.625
 20
4.0434
 30
0
 11
13.5972
 21
4.0712
 31
0
  0
LINE
  8
LAYER1
  6
CONTINUOUS
 62
     7
 10
13.2639
 20
4.0712
 30
0
 11
13.5972
 21
4.0712
 31
0
  0
LINE
  8
LAYER1
  6
CONTINUOUS
 62
     7
 10
13.2361
 20
3.5156
 30
0
 11
13.625
 21
3.5156
 31
0
  0
LINE
  8
LAYER1
  6
CONTINUOUS
 62
     7
 10
13.2639
 20
3.4878
 30
0
 11
13.5833
 21
3.4878
 31
0
  0
LINE
  8
LAYER1
  6
CONTINUOUS
 62
     7
 10
13.2361
 20
3.4462
 30
0
 11
13.625
 21
3.4462
 31
0
  0
LINE
  8
LAYER1
  6
CONTINUOUS
 62
     7
 10
13.2639
 20
3.4184
 30
0
 11
13.5833
 21
3.4184
 31
0
  0
LINE
  8
LAYER1
  6
CONTINUOUS
 62
     7
 10
13.2361
 20
3.3906
 30
0
 11
13.625
 21
3.3906
 31
0
  0
LINE
  8
LAYER1
  6
CONTINUOUS
 62
     7
 10
13.2639
 20
3.3628
 30
0
 11
13.5833
 21
3.3628
 31
0
  0
LINE
  8
LAYER1
  6
CONTINUOUS
 62
     7
 10
13.2361
 20
3.3351
 30
0
 11
13.625
 21
3.3351
 31
0
  0
LINE
  8
LAYER1
  6
CONTINUOUS
 62
     7
 10
13.2639
 20
3.3073
 30
0
 11
13.5833
 21
3.3073
 31
0
  0
LINE
  8
LAYER1
  6
CONTINUOUS
 62
     7
 10
13.2361
 20
3.2795
 30
0
 11
13.625
 21
3.2795
 31
0
  0
LINE
  8
LAYER1
  6
CONTINUOUS
 62
     7
 10
13.2639
 20
3.2517
 30
0
 11
13.5833
 21
3.2517
 31
0
  0
LINE
  8
LAYER1
  6
CONTINUOUS
 62
     7
 10
13.2361
 20
3.2101
 30
0
 11
13.625
 21
3.2101
 31
0
  0
LINE
  8
LAYER1
  6
CONTINUOUS
 62
     7
 10
13.2639
 20
3.1823
 30
0
 11
13.5833
 21
3.1823
 31
0
  0
LINE
  8
LAYER1
  6
CONTINUOUS
 62
     7
 10
13.2361
 20
3.1545
 30
0
 11
13.625
 21
3.1545
 31
0
  0
LINE
  8
LAYER1
  6
CONTINUOUS
 62
     7
 10
13.2639
 20
3.1267
 30
0
 11
13.5833
 21
3.1267
 31
0
  0
LINE
  8
LAYER1
  6
CONTINUOUS
 62
     7
 10
13.2361
 20
3.0989
 30
0
 11
13.625
 21
3.0989
 31
0
  0
LINE
  8
LAYER1
  6
CONTINUOUS
 62
     7
 10
13.2639
 20
3.0712
 30
0
 11
13.5833
 21
3.0712
 31
0
  0
LINE
  8
LAYER1
  6
CONTINUOUS
 62
     7
 10
13.2361
 20
3.0434
 30
0
 11
13.625
 21
3.0434
 31
0
  0
LINE
  8
LAYER1
  6
CONTINUOUS
 62
     7
 10
13.2639
 20
3.0156
 30
0
 11
13.5833
 21
3.0156
 31
0
  0
LINE
  8
LAYER1
  6
CONTINUOUS
 62
     7
 10
13.2361
 20
2.9739
 30
0
 11
13.625
 21
2.9739
 31
0
  0
LINE
  8
LAYER1
  6
CONTINUOUS
 62
     7
 10
13.2639
 20
2.9462
 30
0
 11
13.5833
 21
2.9462
 31
0
  0
LINE
  8
LAYER1
  6
CONTINUOUS
 62
     7
 10
13.2361
 20
2.9184
 30
0
 11
13.625
 21
2.9184
 31
0
  0
LINE
  8
LAYER1
  6
CONTINUOUS
 62
     7
 10
13.2639
 20
2.8906
 30
0
 11
13.5833
 21
2.8906
 31
0
  0
LINE
  8
LAYER1
  6
CONTINUOUS
 62
     7
 10
13.2361
 20
2.8628
 30
0
 11
13.625
 21
2.8628
 31
0
  0
LINE
  8
LAYER1
  6
CONTINUOUS
 62
     7
 10
13.2639
 20
2.8351
 30
0
 11
13.5833
 21
2.8351
 31
0
  0
LINE
  8
LAYER1
  6
CONTINUOUS
 62
     7
 10
13.2361
 20
2.8073
 30
0
 11
13.625
 21
2.8073
 31
0
  0
LINE
  8
LAYER1
  6
CONTINUOUS
 62
     7
 10
13.2639
 20
2.7795
 30
0
 11
13.5833
 21
2.7795
 31
0
  0
LINE
  8
LAYER1
  6
CONTINUOUS
 62
     7
 10
13.2361
 20
2.7378
 30
0
 11
13.625
 21
2.7378
 31
0
  0
LINE
  8
LAYER1
  6
CONTINUOUS
 62
     7
 10
13.2639
 20
2.7101
 30
0
 11
13.5833
 21
2.7101
 31
0
  0
LINE
  8
LAYER1
  6
CONTINUOUS
 62
     7
 10
13.2361
 20
2.6823
 30
0
 11
13.625
 21
2.6823
 31
0
  0
LINE
  8
LAYER1
  6
CONTINUOUS
 62
     7
 10
13.2361
 20
2.6545
 30
0
 11
13.625
 21
2.6545
 31
0
  0
LINE
  8
LAYER1
  6
CONTINUOUS
 62
     7
 10
13.2361
 20
2.6545
 30
0
 11
13.2361
 21
4.0434
 31
0
  0
ENDBLK
  8
LAYER1
  0
BLOCK
  8
LAYER1
  2
Group39
 70
     0
 10
0
 20
0
 30
0
  0
LINE
  8
LAYER1
  6
CONTINUOUS
 62
     7
 10
13.625
 20
2.6545
 30
0
 11
13.625
 21
4.0434
 31
0
  0
LINE
  8
LAYER1
  6
CONTINUOUS
 62
     7
 10
13.2361
 20
2.6545
 30
0
 11
13.0694
 21
2.4601
 31
0
  0
LINE
  8
LAYER1
  6
CONTINUOUS
 62
     7
 10
13.625
 20
2.6545
 30
0
 11
13.7917
 21
2.4601
 31
0
  0
POLYLINE
  8
LAYER1
  6
CONTINUOUS
 62
     7
 66
     1
 70
     0
 40
0.0039
 41
0.0039
  0
VERTEX
  8
LAYER1
 10
13.375
 20
2.3628
 30
0
 70
     0
  0
VERTEX
  8
LAYER1
 10
13.375
 20
2.5573
 30
0
 70
     0
  0
VERTEX
  8
LAYER1
 10
13.4861
 20
2.5573
 30
0
 70
     0
  0
VERTEX
  8
LAYER1
 10
13.4861
 20
2.3628
 30
0
 70
     0
  0
SEQEND
  0
LINE
  8
LAYER1
  6
CONTINUOUS
 62
     7
 10
13.7917
 20
2.4601
 30
0
 11
13.4861
 21
2.4601
 31
0
  0
LINE
  8
LAYER1
  6
CONTINUOUS
 62
     7
 10
13.375
 20
2.4601
 30
0
 11
13.0694
 21
2.4601
 31
0
  0
POLYLINE
  8
LAYER1
  6
CONTINUOUS
 62
     7
 66
     1
 70
     0
 40
0.0039
 41
0.0039
  0
VERTEX
  8
LAYER1
 10
13.375
 20
2.3628
 30
0
 70
     0
  0
VERTEX
  8
LAYER1
 10
13.3333
 20
2.3628
 30
0
 70
     0
  0
VERTEX
  8
LAYER1
 10
13.2361
 20
2.3767
 30
0
 70
     0
  0
VERTEX
  8
LAYER1
 10
13.1667
 20
2.4045
 30
0
 70
     0
  0
VERTEX
  8
LAYER1
 10
13.1111
 20
2.4323
 30
0
 70
     0
  0
VERTEX
  8
LAYER1
 10
13.0694
 20
2.4601
 30
0
 70
     0
  0
SEQEND
  0
POLYLINE
  8
LAYER1
  6
CONTINUOUS
 62
     7
 66
     1
 70
     0
 40
0.0039
 41
0.0039
  0
VERTEX
  8
LAYER1
 10
13.7917
 20
2.4601
 30
0
 70
     0
  0
VERTEX
  8
LAYER1
 10
13.75
 20
2.4323
 30
0
 70
     0
  0
VERTEX
  8
LAYER1
 10
13.6806
 20
2.4045
 30
0
 70
     0
  0
VERTEX
  8
LAYER1
 10
13.6111
 20
2.3767
 30
0
 70
     0
  0
VERTEX
  8
LAYER1
 10
13.5278
 20
2.3628
 30
0
 70
     0
  0
VERTEX
  8
LAYER1
 10
13.4861
 20
2.3628
 30
0
 70
     0
  0
SEQEND
  0
ENDBLK
  8
LAYER1
  0
BLOCK
  8
LAYER1
  2
Group40
 70
     0
 10
0
 20
0
 30
0
  0
INSERT
  8
LAYER1
  2
Group38
 10
0
 20
0
 30
0
  0
INSERT
  8
LAYER1
  2
Group39
 10
0
 20
0
 30
0
  0
ENDBLK
  8
LAYER1
  0
BLOCK
  8
LAYER1
  2
Group41
 70
     0
 10
0
 20
0
 30
0
  0
LINE
  8
LAYER1
  6
CONTINUOUS
 62
     7
 10
13.2361
 20
6.2656
 30
0
 11
13.625
 21
6.2656
 31
0
  0
LINE
  8
LAYER1
  6
CONTINUOUS
 62
     7
 10
13.2639
 20
6.2378
 30
0
 11
13.5833
 21
6.2378
 31
0
  0
LINE
  8
LAYER1
  6
CONTINUOUS
 62
     7
 10
13.2361
 20
6.2101
 30
0
 11
13.625
 21
6.2101
 31
0
  0
LINE
  8
LAYER1
  6
CONTINUOUS
 62
     7
 10
13.2639
 20
6.1823
 30
0
 11
13.5833
 21
6.1823
 31
0
  0
LINE
  8
LAYER1
  6
CONTINUOUS
 62
     7
 10
13.2361
 20
6.1545
 30
0
 11
13.625
 21
6.1545
 31
0
  0
LINE
  8
LAYER1
  6
CONTINUOUS
 62
     7
 10
13.2639
 20
6.1128
 30
0
 11
13.5833
 21
6.1128
 31
0
  0
LINE
  8
LAYER1
  6
CONTINUOUS
 62
     7
 10
13.2361
 20
6.0851
 30
0
 11
13.625
 21
6.0851
 31
0
  0
LINE
  8
LAYER1
  6
CONTINUOUS
 62
     7
 10
13.2639
 20
6.0573
 30
0
 11
13.5833
 21
6.0573
 31
0
  0
LINE
  8
LAYER1
  6
CONTINUOUS
 62
     7
 10
13.2361
 20
6.0295
 30
0
 11
13.625
 21
6.0295
 31
0
  0
LINE
  8
LAYER1
  6
CONTINUOUS
 62
     7
 10
13.2639
 20
6.0017
 30
0
 11
13.5833
 21
6.0017
 31
0
  0
LINE
  8
LAYER1
  6
CONTINUOUS
 62
     7
 10
13.2361
 20
5.9739
 30
0
 11
13.625
 21
5.9739
 31
0
  0
LINE
  8
LAYER1
  6
CONTINUOUS
 62
     7
 10
13.2639
 20
5.9462
 30
0
 11
13.5833
 21
5.9462
 31
0
  0
LINE
  8
LAYER1
  6
CONTINUOUS
 62
     7
 10
13.2361
 20
5.9184
 30
0
 11
13.625
 21
5.9184
 31
0
  0
LINE
  8
LAYER1
  6
CONTINUOUS
 62
     7
 10
13.2639
 20
5.8767
 30
0
 11
13.5833
 21
5.8767
 31
0
  0
LINE
  8
LAYER1
  6
CONTINUOUS
 62
     7
 10
13.2361
 20
5.8489
 30
0
 11
13.625
 21
5.8489
 31
0
  0
LINE
  8
LAYER1
  6
CONTINUOUS
 62
     7
 10
13.2639
 20
5.8212
 30
0
 11
13.5833
 21
5.8212
 31
0
  0
LINE
  8
LAYER1
  6
CONTINUOUS
 62
     7
 10
13.2361
 20
5.7934
 30
0
 11
13.625
 21
5.7934
 31
0
  0
LINE
  8
LAYER1
  6
CONTINUOUS
 62
     7
 10
13.2639
 20
5.7656
 30
0
 11
13.5833
 21
5.7656
 31
0
  0
LINE
  8
LAYER1
  6
CONTINUOUS
 62
     7
 10
13.2361
 20
6.2656
 30
0
 11
13.2639
 21
6.2934
 31
0
  0
LINE
  8
LAYER1
  6
CONTINUOUS
 62
     7
 10
13.625
 20
6.2656
 30
0
 11
13.5972
 21
6.2934
 31
0
  0
LINE
  8
LAYER1
  6
CONTINUOUS
 62
     7
 10
13.2639
 20
6.2934
 30
0
 11
13.5972
 21
6.2934
 31
0
  0
LINE
  8
LAYER1
  6
CONTINUOUS
 62
     7
 10
13.2361
 20
5.7378
 30
0
 11
13.625
 21
5.7378
 31
0
  0
LINE
  8
LAYER1
  6
CONTINUOUS
 62
     7
 10
13.2639
 20
5.7101
 30
0
 11
13.5833
 21
5.7101
 31
0
  0
LINE
  8
LAYER1
  6
CONTINUOUS
 62
     7
 10
13.2361
 20
5.6823
 30
0
 11
13.625
 21
5.6823
 31
0
  0
LINE
  8
LAYER1
  6
CONTINUOUS
 62
     7
 10
13.2639
 20
5.6406
 30
0
 11
13.5833
 21
5.6406
 31
0
  0
LINE
  8
LAYER1
  6
CONTINUOUS
 62
     7
 10
13.2361
 20
5.6128
 30
0
 11
13.625
 21
5.6128
 31
0
  0
LINE
  8
LAYER1
  6
CONTINUOUS
 62
     7
 10
13.2639
 20
5.5851
 30
0
 11
13.5833
 21
5.5851
 31
0
  0
LINE
  8
LAYER1
  6
CONTINUOUS
 62
     7
 10
13.2361
 20
5.5573
 30
0
 11
13.625
 21
5.5573
 31
0
  0
LINE
  8
LAYER1
  6
CONTINUOUS
 62
     7
 10
13.2639
 20
5.5295
 30
0
 11
13.5833
 21
5.5295
 31
0
  0
LINE
  8
LAYER1
  6
CONTINUOUS
 62
     7
 10
13.2361
 20
5.5017
 30
0
 11
13.625
 21
5.5017
 31
0
  0
LINE
  8
LAYER1
  6
CONTINUOUS
 62
     7
 10
13.2639
 20
5.4739
 30
0
 11
13.5833
 21
5.4739
 31
0
  0
LINE
  8
LAYER1
  6
CONTINUOUS
 62
     7
 10
13.2361
 20
5.4462
 30
0
 11
13.625
 21
5.4462
 31
0
  0
LINE
  8
LAYER1
  6
CONTINUOUS
 62
     7
 10
13.2639
 20
5.4045
 30
0
 11
13.5833
 21
5.4045
 31
0
  0
LINE
  8
LAYER1
  6
CONTINUOUS
 62
     7
 10
13.2361
 20
5.3767
 30
0
 11
13.625
 21
5.3767
 31
0
  0
LINE
  8
LAYER1
  6
CONTINUOUS
 62
     7
 10
13.2639
 20
5.3489
 30
0
 11
13.5833
 21
5.3489
 31
0
  0
LINE
  8
LAYER1
  6
CONTINUOUS
 62
     7
 10
13.2361
 20
5.3212
 30
0
 11
13.625
 21
5.3212
 31
0
  0
LINE
  8
LAYER1
  6
CONTINUOUS
 62
     7
 10
13.2639
 20
5.2934
 30
0
 11
13.5833
 21
5.2934
 31
0
  0
LINE
  8
LAYER1
  6
CONTINUOUS
 62
     7
 10
13.2361
 20
5.2656
 30
0
 11
13.625
 21
5.2656
 31
0
  0
LINE
  8
LAYER1
  6
CONTINUOUS
 62
     7
 10
13.2639
 20
5.2378
 30
0
 11
13.5833
 21
5.2378
 31
0
  0
LINE
  8
LAYER1
  6
CONTINUOUS
 62
     7
 10
13.2361
 20
5.2101
 30
0
 11
13.625
 21
5.2101
 31
0
  0
LINE
  8
LAYER1
  6
CONTINUOUS
 62
     7
 10
13.2639
 20
5.1684
 30
0
 11
13.5833
 21
5.1684
 31
0
  0
LINE
  8
LAYER1
  6
CONTINUOUS
 62
     7
 10
13.2361
 20
5.1406
 30
0
 11
13.625
 21
5.1406
 31
0
  0
LINE
  8
LAYER1
  6
CONTINUOUS
 62
     7
 10
13.2639
 20
5.1128
 30
0
 11
13.5833
 21
5.1128
 31
0
  0
LINE
  8
LAYER1
  6
CONTINUOUS
 62
     7
 10
13.2361
 20
5.0851
 30
0
 11
13.625
 21
5.0851
 31
0
  0
LINE
  8
LAYER1
  6
CONTINUOUS
 62
     7
 10
13.2639
 20
5.0573
 30
0
 11
13.5833
 21
5.0573
 31
0
  0
LINE
  8
LAYER1
  6
CONTINUOUS
 62
     7
 10
13.2361
 20
5.0295
 30
0
 11
13.625
 21
5.0295
 31
0
  0
LINE
  8
LAYER1
  6
CONTINUOUS
 62
     7
 10
13.2639
 20
5.0017
 30
0
 11
13.5833
 21
5.0017
 31
0
  0
LINE
  8
LAYER1
  6
CONTINUOUS
 62
     7
 10
13.2361
 20
4.9739
 30
0
 11
13.625
 21
4.9739
 31
0
  0
LINE
  8
LAYER1
  6
CONTINUOUS
 62
     7
 10
13.2639
 20
4.9323
 30
0
 11
13.5833
 21
4.9323
 31
0
  0
LINE
  8
LAYER1
  6
CONTINUOUS
 62
     7
 10
13.2361
 20
4.9045
 30
0
 11
13.625
 21
4.9045
 31
0
  0
LINE
  8
LAYER1
  6
CONTINUOUS
 62
     7
 10
13.2639
 20
4.8767
 30
0
 11
13.5833
 21
4.8767
 31
0
  0
LINE
  8
LAYER1
  6
CONTINUOUS
 62
     7
 10
13.2361
 20
4.8489
 30
0
 11
13.625
 21
4.8489
 31
0
  0
LINE
  8
LAYER1
  6
CONTINUOUS
 62
     7
 10
13.2639
 20
4.8212
 30
0
 11
13.5833
 21
4.8212
 31
0
  0
LINE
  8
LAYER1
  6
CONTINUOUS
 62
     7
 10
13.2361
 20
4.7934
 30
0
 11
13.625
 21
4.7934
 31
0
  0
LINE
  8
LAYER1
  6
CONTINUOUS
 62
     7
 10
13.2639
 20
4.7656
 30
0
 11
13.5833
 21
4.7656
 31
0
  0
LINE
  8
LAYER1
  6
CONTINUOUS
 62
     7
 10
13.2361
 20
4.7378
 30
0
 11
13.625
 21
4.7378
 31
0
  0
LINE
  8
LAYER1
  6
CONTINUOUS
 62
     7
 10
13.2639
 20
4.6962
 30
0
 11
13.5833
 21
4.6962
 31
0
  0
LINE
  8
LAYER1
  6
CONTINUOUS
 62
     7
 10
13.2361
 20
4.6684
 30
0
 11
13.625
 21
4.6684
 31
0
  0
LINE
  8
LAYER1
  6
CONTINUOUS
 62
     7
 10
13.2361
 20
4.6406
 30
0
 11
13.625
 21
4.6406
 31
0
  0
LINE
  8
LAYER1
  6
CONTINUOUS
 62
     7
 10
13.2361
 20
4.6406
 30
0
 11
13.2361
 21
6.2656
 31
0
  0
ENDBLK
  8
LAYER1
  0
BLOCK
  8
LAYER1
  2
Group42
 70
     0
 10
0
 20
0
 30
0
  0
LINE
  8
LAYER1
  6
CONTINUOUS
 62
     7
 10
13.625
 20
4.6406
 30
0
 11
13.625
 21
6.2656
 31
0
  0
LINE
  8
LAYER1
  6
CONTINUOUS
 62
     7
 10
13.2361
 20
4.6406
 30
0
 11
13.0694
 21
4.4462
 31
0
  0
LINE
  8
LAYER1
  6
CONTINUOUS
 62
     7
 10
13.625
 20
4.6406
 30
0
 11
13.7917
 21
4.4462
 31
0
  0
POLYLINE
  8
LAYER1
  6
CONTINUOUS
 62
     7
 66
     1
 70
     0
 40
0.0039
 41
0.0039
  0
VERTEX
  8
LAYER1
 10
13.375
 20
4.3489
 30
0
 70
     0
  0
VERTEX
  8
LAYER1
 10
13.375
 20
4.5434
 30
0
 70
     0
  0
VERTEX
  8
LAYER1
 10
13.4861
 20
4.5434
 30
0
 70
     0
  0
VERTEX
  8
LAYER1
 10
13.4861
 20
4.3489
 30
0
 70
     0
  0
SEQEND
  0
LINE
  8
LAYER1
  6
CONTINUOUS
 62
     7
 10
13.7917
 20
4.4462
 30
0
 11
13.4861
 21
4.4462
 31
0
  0
LINE
  8
LAYER1
  6
CONTINUOUS
 62
     7
 10
13.375
 20
4.4462
 30
0
 11
13.0694
 21
4.4462
 31
0
  0
POLYLINE
  8
LAYER1
  6
CONTINUOUS
 62
     7
 66
     1
 70
     0
 40
0.0039
 41
0.0039
  0
VERTEX
  8
LAYER1
 10
13.375
 20
4.3489
 30
0
 70
     0
  0
VERTEX
  8
LAYER1
 10
13.3333
 20
4.3489
 30
0
 70
     0
  0
VERTEX
  8
LAYER1
 10
13.25
 20
4.3628
 30
0
 70
     0
  0
VERTEX
  8
LAYER1
 10
13.1806
 20
4.3906
 30
0
 70
     0
  0
VERTEX
  8
LAYER1
 10
13.1111
 20
4.4184
 30
0
 70
     0
  0
VERTEX
  8
LAYER1
 10
13.0694
 20
4.4462
 30
0
 70
     0
  0
SEQEND
  0
POLYLINE
  8
LAYER1
  6
CONTINUOUS
 62
     7
 66
     1
 70
     0
 40
0.0039
 41
0.0039
  0
VERTEX
  8
LAYER1
 10
13.7917
 20
4.4462
 30
0
 70
     0
  0
VERTEX
  8
LAYER1
 10
13.75
 20
4.4184
 30
0
 70
     0
  0
VERTEX
  8
LAYER1
 10
13.6667
 20
4.3906
 30
0
 70
     0
  0
VERTEX
  8
LAYER1
 10
13.5972
 20
4.3628
 30
0
 70
     0
  0
VERTEX
  8
LAYER1
 10
13.5139
 20
4.3489
 30
0
 70
     0
  0
VERTEX
  8
LAYER1
 10
13.4861
 20
4.3489
 30
0
 70
     0
  0
SEQEND
  0
ENDBLK
  8
LAYER1
  0
BLOCK
  8
LAYER1
  2
Group43
 70
     0
 10
0
 20
0
 30
0
  0
INSERT
  8
LAYER1
  2
Group41
 10
0
 20
0
 30
0
  0
INSERT
  8
LAYER1
  2
Group42
 10
0
 20
0
 30
0
  0
ENDBLK
  8
LAYER1
  0
BLOCK
  8
LAYER1
  2
Group44
 70
     0
 10
0
 20
0
 30
0
  0
LINE
  8
LAYER1
  6
CONTINUOUS
 62
     7
 10
13.2361
 20
9.0434
 30
0
 11
13.625
 21
9.0434
 31
0
  0
LINE
  8
LAYER1
  6
CONTINUOUS
 62
     7
 10
13.2639
 20
9.0156
 30
0
 11
13.5833
 21
9.0156
 31
0
  0
LINE
  8
LAYER1
  6
CONTINUOUS
 62
     7
 10
13.2361
 20
8.9878
 30
0
 11
13.625
 21
8.9878
 31
0
  0
LINE
  8
LAYER1
  6
CONTINUOUS
 62
     7
 10
13.2639
 20
8.9462
 30
0
 11
13.5833
 21
8.9462
 31
0
  0
LINE
  8
LAYER1
  6
CONTINUOUS
 62
     7
 10
13.2361
 20
8.9184
 30
0
 11
13.625
 21
8.9184
 31
0
  0
LINE
  8
LAYER1
  6
CONTINUOUS
 62
     7
 10
13.2639
 20
8.8906
 30
0
 11
13.5833
 21
8.8906
 31
0
  0
LINE
  8
LAYER1
  6
CONTINUOUS
 62
     7
 10
13.2361
 20
8.8628
 30
0
 11
13.625
 21
8.8628
 31
0
  0
LINE
  8
LAYER1
  6
CONTINUOUS
 62
     7
 10
13.2639
 20
8.8351
 30
0
 11
13.5833
 21
8.8351
 31
0
  0
LINE
  8
LAYER1
  6
CONTINUOUS
 62
     7
 10
13.2361
 20
8.8073
 30
0
 11
13.625
 21
8.8073
 31
0
  0
LINE
  8
LAYER1
  6
CONTINUOUS
 62
     7
 10
13.2639
 20
8.7795
 30
0
 11
13.5833
 21
8.7795
 31
0
  0
LINE
  8
LAYER1
  6
CONTINUOUS
 62
     7
 10
13.2361
 20
8.7517
 30
0
 11
13.625
 21
8.7517
 31
0
  0
LINE
  8
LAYER1
  6
CONTINUOUS
 62
     7
 10
13.2639
 20
8.7101
 30
0
 11
13.5833
 21
8.7101
 31
0
  0
LINE
  8
LAYER1
  6
CONTINUOUS
 62
     7
 10
13.2361
 20
8.6823
 30
0
 11
13.625
 21
8.6823
 31
0
  0
LINE
  8
LAYER1
  6
CONTINUOUS
 62
     7
 10
13.2639
 20
8.6545
 30
0
 11
13.5833
 21
8.6545
 31
0
  0
LINE
  8
LAYER1
  6
CONTINUOUS
 62
     7
 10
13.2361
 20
8.6267
 30
0
 11
13.625
 21
8.6267
 31
0
  0
LINE
  8
LAYER1
  6
CONTINUOUS
 62
     7
 10
13.2639
 20
8.5989
 30
0
 11
13.5833
 21
8.5989
 31
0
  0
LINE
  8
LAYER1
  6
CONTINUOUS
 62
     7
 10
13.2361
 20
8.5712
 30
0
 11
13.625
 21
8.5712
 31
0
  0
LINE
  8
LAYER1
  6
CONTINUOUS
 62
     7
 10
13.2639
 20
8.5434
 30
0
 11
13.5833
 21
8.5434
 31
0
  0
LINE
  8
LAYER1
  6
CONTINUOUS
 62
     7
 10
13.2361
 20
9.0434
 30
0
 11
13.2639
 21
9.0712
 31
0
  0
LINE
  8
LAYER1
  6
CONTINUOUS
 62
     7
 10
13.625
 20
9.0434
 30
0
 11
13.5972
 21
9.0712
 31
0
  0
LINE
  8
LAYER1
  6
CONTINUOUS
 62
     7
 10
13.2639
 20
9.0712
 30
0
 11
13.5972
 21
9.0712
 31
0
  0
LINE
  8
LAYER1
  6
CONTINUOUS
 62
     7
 10
13.2361
 20
8.5156
 30
0
 11
13.625
 21
8.5156
 31
0
  0
LINE
  8
LAYER1
  6
CONTINUOUS
 62
     7
 10
13.2639
 20
8.4739
 30
0
 11
13.5833
 21
8.4739
 31
0
  0
LINE
  8
LAYER1
  6
CONTINUOUS
 62
     7
 10
13.2361
 20
8.4462
 30
0
 11
13.625
 21
8.4462
 31
0
  0
LINE
  8
LAYER1
  6
CONTINUOUS
 62
     7
 10
13.2639
 20
8.4184
 30
0
 11
13.5833
 21
8.4184
 31
0
  0
LINE
  8
LAYER1
  6
CONTINUOUS
 62
     7
 10
13.2361
 20
8.3906
 30
0
 11
13.625
 21
8.3906
 31
0
  0
LINE
  8
LAYER1
  6
CONTINUOUS
 62
     7
 10
13.2639
 20
8.3628
 30
0
 11
13.5833
 21
8.3628
 31
0
  0
LINE
  8
LAYER1
  6
CONTINUOUS
 62
     7
 10
13.2361
 20
8.3351
 30
0
 11
13.625
 21
8.3351
 31
0
  0
LINE
  8
LAYER1
  6
CONTINUOUS
 62
     7
 10
13.2639
 20
8.3073
 30
0
 11
13.5833
 21
8.3073
 31
0
  0
LINE
  8
LAYER1
  6
CONTINUOUS
 62
     7
 10
13.2361
 20
8.2795
 30
0
 11
13.625
 21
8.2795
 31
0
  0
LINE
  8
LAYER1
  6
CONTINUOUS
 62
     7
 10
13.2639
 20
8.2378
 30
0
 11
13.5833
 21
8.2378
 31
0
  0
LINE
  8
LAYER1
  6
CONTINUOUS
 62
     7
 10
13.2361
 20
8.2101
 30
0
 11
13.625
 21
8.2101
 31
0
  0
LINE
  8
LAYER1
  6
CONTINUOUS
 62
     7
 10
13.2639
 20
8.1823
 30
0
 11
13.5833
 21
8.1823
 31
0
  0
LINE
  8
LAYER1
  6
CONTINUOUS
 62
     7
 10
13.2361
 20
8.1545
 30
0
 11
13.625
 21
8.1545
 31
0
  0
LINE
  8
LAYER1
  6
CONTINUOUS
 62
     7
 10
13.2639
 20
8.1267
 30
0
 11
13.5833
 21
8.1267
 31
0
  0
LINE
  8
LAYER1
  6
CONTINUOUS
 62
     7
 10
13.2361
 20
8.0989
 30
0
 11
13.625
 21
8.0989
 31
0
  0
LINE
  8
LAYER1
  6
CONTINUOUS
 62
     7
 10
13.2639
 20
8.0712
 30
0
 11
13.5833
 21
8.0712
 31
0
  0
LINE
  8
LAYER1
  6
CONTINUOUS
 62
     7
 10
13.2361
 20
8.0434
 30
0
 11
13.625
 21
8.0434
 31
0
  0
LINE
  8
LAYER1
  6
CONTINUOUS
 62
     7
 10
13.2639
 20
8.0017
 30
0
 11
13.5833
 21
8.0017
 31
0
  0
LINE
  8
LAYER1
  6
CONTINUOUS
 62
     7
 10
13.2361
 20
7.9739
 30
0
 11
13.625
 21
7.9739
 31
0
  0
LINE
  8
LAYER1
  6
CONTINUOUS
 62
     7
 10
13.2639
 20
7.9462
 30
0
 11
13.5833
 21
7.9462
 31
0
  0
LINE
  8
LAYER1
  6
CONTINUOUS
 62
     7
 10
13.2361
 20
7.9184
 30
0
 11
13.625
 21
7.9184
 31
0
  0
LINE
  8
LAYER1
  6
CONTINUOUS
 62
     7
 10
13.2639
 20
7.8906
 30
0
 11
13.5833
 21
7.8906
 31
0
  0
LINE
  8
LAYER1
  6
CONTINUOUS
 62
     7
 10
13.2361
 20
7.8628
 30
0
 11
13.625
 21
7.8628
 31
0
  0
LINE
  8
LAYER1
  6
CONTINUOUS
 62
     7
 10
13.2639
 20
7.8351
 30
0
 11
13.5833
 21
7.8351
 31
0
  0
LINE
  8
LAYER1
  6
CONTINUOUS
 62
     7
 10
13.2361
 20
7.8073
 30
0
 11
13.625
 21
7.8073
 31
0
  0
LINE
  8
LAYER1
  6
CONTINUOUS
 62
     7
 10
13.2639
 20
7.7656
 30
0
 11
13.5833
 21
7.7656
 31
0
  0
LINE
  8
LAYER1
  6
CONTINUOUS
 62
     7
 10
13.2361
 20
7.7378
 30
0
 11
13.625
 21
7.7378
 31
0
  0
LINE
  8
LAYER1
  6
CONTINUOUS
 62
     7
 10
13.2639
 20
7.7101
 30
0
 11
13.5833
 21
7.7101
 31
0
  0
LINE
  8
LAYER1
  6
CONTINUOUS
 62
     7
 10
13.2361
 20
7.6823
 30
0
 11
13.625
 21
7.6823
 31
0
  0
LINE
  8
LAYER1
  6
CONTINUOUS
 62
     7
 10
13.2639
 20
7.6545
 30
0
 11
13.5833
 21
7.6545
 31
0
  0
LINE
  8
LAYER1
  6
CONTINUOUS
 62
     7
 10
13.2361
 20
7.6267
 30
0
 11
13.625
 21
7.6267
 31
0
  0
LINE
  8
LAYER1
  6
CONTINUOUS
 62
     7
 10
13.2639
 20
7.5989
 30
0
 11
13.5833
 21
7.5989
 31
0
  0
LINE
  8
LAYER1
  6
CONTINUOUS
 62
     7
 10
13.2361
 20
7.5712
 30
0
 11
13.625
 21
7.5712
 31
0
  0
LINE
  8
LAYER1
  6
CONTINUOUS
 62
     7
 10
13.2639
 20
7.5295
 30
0
 11
13.5833
 21
7.5295
 31
0
  0
LINE
  8
LAYER1
  6
CONTINUOUS
 62
     7
 10
13.2361
 20
7.5017
 30
0
 11
13.625
 21
7.5017
 31
0
  0
LINE
  8
LAYER1
  6
CONTINUOUS
 62
     7
 10
13.2639
 20
7.4739
 30
0
 11
13.5833
 21
7.4739
 31
0
  0
LINE
  8
LAYER1
  6
CONTINUOUS
 62
     7
 10
13.2361
 20
7.4462
 30
0
 11
13.625
 21
7.4462
 31
0
  0
LINE
  8
LAYER1
  6
CONTINUOUS
 62
     7
 10
13.2639
 20
7.4184
 30
0
 11
13.5833
 21
7.4184
 31
0
  0
LINE
  8
LAYER1
  6
CONTINUOUS
 62
     7
 10
13.2361
 20
7.3906
 30
0
 11
13.625
 21
7.3906
 31
0
  0
LINE
  8
LAYER1
  6
CONTINUOUS
 62
     7
 10
13.2639
 20
7.3628
 30
0
 11
13.5833
 21
7.3628
 31
0
  0
LINE
  8
LAYER1
  6
CONTINUOUS
 62
     7
 10
13.2361
 20
7.3351
 30
0
 11
13.625
 21
7.3351
 31
0
  0
LINE
  8
LAYER1
  6
CONTINUOUS
 62
     7
 10
13.2639
 20
7.2934
 30
0
 11
13.5833
 21
7.2934
 31
0
  0
LINE
  8
LAYER1
  6
CONTINUOUS
 62
     7
 10
13.2361
 20
7.2656
 30
0
 11
13.625
 21
7.2656
 31
0
  0
LINE
  8
LAYER1
  6
CONTINUOUS
 62
     7
 10
13.2639
 20
7.2378
 30
0
 11
13.5833
 21
7.2378
 31
0
  0
LINE
  8
LAYER1
  6
CONTINUOUS
 62
     7
 10
13.2361
 20
7.2101
 30
0
 11
13.625
 21
7.2101
 31
0
  0
LINE
  8
LAYER1
  6
CONTINUOUS
 62
     7
 10
13.2361
 20
7.1823
 30
0
 11
13.625
 21
7.1823
 31
0
  0
LINE
  8
LAYER1
  6
CONTINUOUS
 62
     7
 10
13.2361
 20
7.1823
 30
0
 11
13.2361
 21
9.0434
 31
0
  0
ENDBLK
  8
LAYER1
  0
BLOCK
  8
LAYER1
  2
Group45
 70
     0
 10
0
 20
0
 30
0
  0
LINE
  8
LAYER1
  6
CONTINUOUS
 62
     7
 10
13.625
 20
7.1823
 30
0
 11
13.625
 21
9.0434
 31
0
  0
LINE
  8
LAYER1
  6
CONTINUOUS
 62
     7
 10
13.2361
 20
7.1823
 30
0
 11
13.0694
 21
6.9878
 31
0
  0
LINE
  8
LAYER1
  6
CONTINUOUS
 62
     7
 10
13.625
 20
7.1823
 30
0
 11
13.7917
 21
6.9878
 31
0
  0
POLYLINE
  8
LAYER1
  6
CONTINUOUS
 62
     7
 66
     1
 70
     0
 40
0.0039
 41
0.0039
  0
VERTEX
  8
LAYER1
 10
13.375
 20
6.8906
 30
0
 70
     0
  0
VERTEX
  8
LAYER1
 10
13.375
 20
7.0851
 30
0
 70
     0
  0
VERTEX
  8
LAYER1
 10
13.4861
 20
7.0851
 30
0
 70
     0
  0
VERTEX
  8
LAYER1
 10
13.4861
 20
6.8906
 30
0
 70
     0
  0
SEQEND
  0
LINE
  8
LAYER1
  6
CONTINUOUS
 62
     7
 10
13.7917
 20
6.9878
 30
0
 11
13.4861
 21
6.9878
 31
0
  0
LINE
  8
LAYER1
  6
CONTINUOUS
 62
     7
 10
13.375
 20
6.9878
 30
0
 11
13.0694
 21
6.9878
 31
0
  0
POLYLINE
  8
LAYER1
  6
CONTINUOUS
 62
     7
 66
     1
 70
     0
 40
0.0039
 41
0.0039
  0
VERTEX
  8
LAYER1
 10
13.375
 20
6.8906
 30
0
 70
     0
  0
VERTEX
  8
LAYER1
 10
13.3333
 20
6.8906
 30
0
 70
     0
  0
VERTEX
  8
LAYER1
 10
13.25
 20
6.9045
 30
0
 70
     0
  0
VERTEX
  8
LAYER1
 10
13.1806
 20
6.9323
 30
0
 70
     0
  0
VERTEX
  8
LAYER1
 10
13.1111
 20
6.9601
 30
0
 70
     0
  0
VERTEX
  8
LAYER1
 10
13.0694
 20
6.9878
 30
0
 70
     0
  0
SEQEND
  0
POLYLINE
  8
LAYER1
  6
CONTINUOUS
 62
     7
 66
     1
 70
     0
 40
0.0039
 41
0.0039
  0
VERTEX
  8
LAYER1
 10
13.7917
 20
6.9878
 30
0
 70
     0
  0
VERTEX
  8
LAYER1
 10
13.75
 20
6.9601
 30
0
 70
     0
  0
VERTEX
  8
LAYER1
 10
13.6806
 20
6.9323
 30
0
 70
     0
  0
VERTEX
  8
LAYER1
 10
13.6111
 20
6.9045
 30
0
 70
     0
  0
VERTEX
  8
LAYER1
 10
13.5278
 20
6.8906
 30
0
 70
     0
  0
VERTEX
  8
LAYER1
 10
13.4861
 20
6.8906
 30
0
 70
     0
  0
SEQEND
  0
ENDBLK
  8
LAYER1
  0
BLOCK
  8
LAYER1
  2
Group46
 70
     0
 10
0
 20
0
 30
0
  0
INSERT
  8
LAYER1
  2
Group44
 10
0
 20
0
 30
0
  0
INSERT
  8
LAYER1
  2
Group45
 10
0
 20
0
 30
0
  0
ENDBLK
  8
LAYER1
  0
BLOCK
  8
LAYER1
  2
Group47
 70
     0
 10
0
 20
0
 30
0
  0
POLYLINE
  8
LAYER1
  6
CONTINUOUS
 62
     7
 66
     1
 70
     0
 40
0.0039
 41
0.0039
  0
VERTEX
  8
LAYER1
 10
12.5417
 20
6.2517
 30
0
 70
     0
  0
VERTEX
  8
LAYER1
 10
12.8611
 20
6.2517
 30
0
 70
     0
  0
VERTEX
  8
LAYER1
 10
12.8333
 20
6.2656
 30
0
 70
     0
  0
SEQEND
  0
LINE
  8
LAYER1
  6
CONTINUOUS
 62
     7
 10
12.5833
 20
6.2656
 30
0
 11
12.8333
 21
6.2656
 31
0
  0
LINE
  8
LAYER1
  6
CONTINUOUS
 62
     7
 10
12.5417
 20
6.2517
 30
0
 11
12.5833
 21
6.2656
 31
0
  0
LINE
  8
LAYER1
  6
CONTINUOUS
 62
     7
 10
12.5694
 20
6.2239
 30
0
 11
12.8333
 21
6.2239
 31
0
  0
LINE
  8
LAYER1
  6
CONTINUOUS
 62
     7
 10
12.5417
 20
6.1962
 30
0
 11
12.8611
 21
6.1962
 31
0
  0
LINE
  8
LAYER1
  6
CONTINUOUS
 62
     7
 10
12.5694
 20
6.1684
 30
0
 11
12.8333
 21
6.1684
 31
0
  0
LINE
  8
LAYER1
  6
CONTINUOUS
 62
     7
 10
12.5417
 20
6.1545
 30
0
 11
12.8611
 21
6.1545
 31
0
  0
LINE
  8
LAYER1
  6
CONTINUOUS
 62
     7
 10
12.5694
 20
6.1267
 30
0
 11
12.8333
 21
6.1267
 31
0
  0
LINE
  8
LAYER1
  6
CONTINUOUS
 62
     7
 10
12.5417
 20
6.0989
 30
0
 11
12.8611
 21
6.0989
 31
0
  0
LINE
  8
LAYER1
  6
CONTINUOUS
 62
     7
 10
12.5694
 20
6.0712
 30
0
 11
12.8333
 21
6.0712
 31
0
  0
LINE
  8
LAYER1
  6
CONTINUOUS
 62
     7
 10
12.5417
 20
6.0573
 30
0
 11
12.8611
 21
6.0573
 31
0
  0
LINE
  8
LAYER1
  6
CONTINUOUS
 62
     7
 10
12.5694
 20
6.0295
 30
0
 11
12.8333
 21
6.0295
 31
0
  0
LINE
  8
LAYER1
  6
CONTINUOUS
 62
     7
 10
12.5417
 20
6.0017
 30
0
 11
12.8611
 21
6.0017
 31
0
  0
LINE
  8
LAYER1
  6
CONTINUOUS
 62
     7
 10
12.5694
 20
5.9739
 30
0
 11
12.8333
 21
5.9739
 31
0
  0
LINE
  8
LAYER1
  6
CONTINUOUS
 62
     7
 10
12.5417
 20
5.9601
 30
0
 11
12.8611
 21
5.9601
 31
0
  0
LINE
  8
LAYER1
  6
CONTINUOUS
 62
     7
 10
12.5694
 20
5.9323
 30
0
 11
12.8333
 21
5.9323
 31
0
  0
LINE
  8
LAYER1
  6
CONTINUOUS
 62
     7
 10
12.5417
 20
5.9045
 30
0
 11
12.8611
 21
5.9045
 31
0
  0
LINE
  8
LAYER1
  6
CONTINUOUS
 62
     7
 10
12.5694
 20
5.8767
 30
0
 11
12.8333
 21
5.8767
 31
0
  0
LINE
  8
LAYER1
  6
CONTINUOUS
 62
     7
 10
12.5417
 20
5.8628
 30
0
 11
12.8611
 21
5.8628
 31
0
  0
LINE
  8
LAYER1
  6
CONTINUOUS
 62
     7
 10
12.5694
 20
5.8351
 30
0
 11
12.8333
 21
5.8351
 31
0
  0
LINE
  8
LAYER1
  6
CONTINUOUS
 62
     7
 10
12.5417
 20
5.8073
 30
0
 11
12.8611
 21
5.8073
 31
0
  0
LINE
  8
LAYER1
  6
CONTINUOUS
 62
     7
 10
12.5694
 20
5.7795
 30
0
 11
12.8333
 21
5.7795
 31
0
  0
LINE
  8
LAYER1
  6
CONTINUOUS
 62
     7
 10
12.5417
 20
5.7656
 30
0
 11
12.8611
 21
5.7656
 31
0
  0
LINE
  8
LAYER1
  6
CONTINUOUS
 62
     7
 10
12.5694
 20
5.7378
 30
0
 11
12.8333
 21
5.7378
 31
0
  0
LINE
  8
LAYER1
  6
CONTINUOUS
 62
     7
 10
12.5417
 20
5.7101
 30
0
 11
12.8611
 21
5.7101
 31
0
  0
LINE
  8
LAYER1
  6
CONTINUOUS
 62
     7
 10
12.5694
 20
5.6823
 30
0
 11
12.8333
 21
5.6823
 31
0
  0
LINE
  8
LAYER1
  6
CONTINUOUS
 62
     7
 10
12.5417
 20
5.6684
 30
0
 11
12.8611
 21
5.6684
 31
0
  0
LINE
  8
LAYER1
  6
CONTINUOUS
 62
     7
 10
12.5694
 20
5.6406
 30
0
 11
12.8333
 21
5.6406
 31
0
  0
LINE
  8
LAYER1
  6
CONTINUOUS
 62
     7
 10
12.5417
 20
5.6128
 30
0
 11
12.8611
 21
5.6128
 31
0
  0
LINE
  8
LAYER1
  6
CONTINUOUS
 62
     7
 10
12.5694
 20
5.5851
 30
0
 11
12.8333
 21
5.5851
 31
0
  0
LINE
  8
LAYER1
  6
CONTINUOUS
 62
     7
 10
12.5417
 20
5.5712
 30
0
 11
12.8611
 21
5.5712
 31
0
  0
LINE
  8
LAYER1
  6
CONTINUOUS
 62
     7
 10
12.5694
 20
5.5434
 30
0
 11
12.8333
 21
5.5434
 31
0
  0
LINE
  8
LAYER1
  6
CONTINUOUS
 62
     7
 10
12.5417
 20
5.5156
 30
0
 11
12.8611
 21
5.5156
 31
0
  0
LINE
  8
LAYER1
  6
CONTINUOUS
 62
     7
 10
12.5694
 20
5.4878
 30
0
 11
12.8333
 21
5.4878
 31
0
  0
LINE
  8
LAYER1
  6
CONTINUOUS
 62
     7
 10
12.5417
 20
5.4739
 30
0
 11
12.8611
 21
5.4739
 31
0
  0
LINE
  8
LAYER1
  6
CONTINUOUS
 62
     7
 10
12.5694
 20
5.4462
 30
0
 11
12.8333
 21
5.4462
 31
0
  0
LINE
  8
LAYER1
  6
CONTINUOUS
 62
     7
 10
12.5417
 20
5.4184
 30
0
 11
12.8611
 21
5.4184
 31
0
  0
LINE
  8
LAYER1
  6
CONTINUOUS
 62
     7
 10
12.5694
 20
5.3906
 30
0
 11
12.8333
 21
5.3906
 31
0
  0
LINE
  8
LAYER1
  6
CONTINUOUS
 62
     7
 10
12.5417
 20
5.3767
 30
0
 11
12.8611
 21
5.3767
 31
0
  0
LINE
  8
LAYER1
  6
CONTINUOUS
 62
     7
 10
12.5694
 20
5.3489
 30
0
 11
12.8333
 21
5.3489
 31
0
  0
LINE
  8
LAYER1
  6
CONTINUOUS
 62
     7
 10
12.5417
 20
5.3212
 30
0
 11
12.8611
 21
5.3212
 31
0
  0
LINE
  8
LAYER1
  6
CONTINUOUS
 62
     7
 10
12.5694
 20
5.2934
 30
0
 11
12.8333
 21
5.2934
 31
0
  0
LINE
  8
LAYER1
  6
CONTINUOUS
 62
     7
 10
12.5417
 20
5.2795
 30
0
 11
12.8611
 21
5.2795
 31
0
  0
LINE
  8
LAYER1
  6
CONTINUOUS
 62
     7
 10
12.5694
 20
5.2517
 30
0
 11
12.8333
 21
5.2517
 31
0
  0
LINE
  8
LAYER1
  6
CONTINUOUS
 62
     7
 10
12.5417
 20
5.2239
 30
0
 11
12.8611
 21
5.2239
 31
0
  0
LINE
  8
LAYER1
  6
CONTINUOUS
 62
     7
 10
12.5694
 20
5.1962
 30
0
 11
12.8333
 21
5.1962
 31
0
  0
LINE
  8
LAYER1
  6
CONTINUOUS
 62
     7
 10
12.5417
 20
5.1823
 30
0
 11
12.8611
 21
5.1823
 31
0
  0
LINE
  8
LAYER1
  6
CONTINUOUS
 62
     7
 10
12.5694
 20
5.1545
 30
0
 11
12.8333
 21
5.1545
 31
0
  0
LINE
  8
LAYER1
  6
CONTINUOUS
 62
     7
 10
12.5417
 20
5.1267
 30
0
 11
12.8611
 21
5.1267
 31
0
  0
LINE
  8
LAYER1
  6
CONTINUOUS
 62
     7
 10
12.5694
 20
5.1128
 30
0
 11
12.8333
 21
5.1128
 31
0
  0
LINE
  8
LAYER1
  6
CONTINUOUS
 62
     7
 10
12.5417
 20
5.0851
 30
0
 11
12.8611
 21
5.0851
 31
0
  0
LINE
  8
LAYER1
  6
CONTINUOUS
 62
     7
 10
12.5694
 20
5.0573
 30
0
 11
12.8333
 21
5.0573
 31
0
  0
LINE
  8
LAYER1
  6
CONTINUOUS
 62
     7
 10
12.5417
 20
5.0295
 30
0
 11
12.8611
 21
5.0295
 31
0
  0
LINE
  8
LAYER1
  6
CONTINUOUS
 62
     7
 10
12.5694
 20
5.0156
 30
0
 11
12.8333
 21
5.0156
 31
0
  0
LINE
  8
LAYER1
  6
CONTINUOUS
 62
     7
 10
12.5417
 20
4.9878
 30
0
 11
12.8611
 21
4.9878
 31
0
  0
LINE
  8
LAYER1
  6
CONTINUOUS
 62
     7
 10
12.5694
 20
4.9601
 30
0
 11
12.8333
 21
4.9601
 31
0
  0
LINE
  8
LAYER1
  6
CONTINUOUS
 62
     7
 10
12.5417
 20
4.9323
 30
0
 11
12.8611
 21
4.9323
 31
0
  0
LINE
  8
LAYER1
  6
CONTINUOUS
 62
     7
 10
12.5694
 20
4.9184
 30
0
 11
12.8333
 21
4.9184
 31
0
  0
LINE
  8
LAYER1
  6
CONTINUOUS
 62
     7
 10
12.5417
 20
4.8906
 30
0
 11
12.8611
 21
4.8906
 31
0
  0
LINE
  8
LAYER1
  6
CONTINUOUS
 62
     7
 10
12.5694
 20
4.8628
 30
0
 11
12.8333
 21
4.8628
 31
0
  0
LINE
  8
LAYER1
  6
CONTINUOUS
 62
     7
 10
12.5417
 20
4.8351
 30
0
 11
12.8611
 21
4.8351
 31
0
  0
LINE
  8
LAYER1
  6
CONTINUOUS
 62
     7
 10
12.5694
 20
4.8212
 30
0
 11
12.8333
 21
4.8212
 31
0
  0
LINE
  8
LAYER1
  6
CONTINUOUS
 62
     7
 10
12.5417
 20
4.7934
 30
0
 11
12.8611
 21
4.7934
 31
0
  0
LINE
  8
LAYER1
  6
CONTINUOUS
 62
     7
 10
12.5694
 20
4.7656
 30
0
 11
12.8333
 21
4.7656
 31
0
  0
LINE
  8
LAYER1
  6
CONTINUOUS
 62
     7
 10
12.5417
 20
4.7378
 30
0
 11
12.8611
 21
4.7378
 31
0
  0
LINE
  8
LAYER1
  6
CONTINUOUS
 62
     7
 10
12.5694
 20
4.7239
 30
0
 11
12.8333
 21
4.7239
 31
0
  0
LINE
  8
LAYER1
  6
CONTINUOUS
 62
     7
 10
12.5417
 20
4.6962
 30
0
 11
12.8611
 21
4.6962
 31
0
  0
LINE
  8
LAYER1
  6
CONTINUOUS
 62
     7
 10
12.5694
 20
4.6684
 30
0
 11
12.8333
 21
4.6684
 31
0
  0
LINE
  8
LAYER1
  6
CONTINUOUS
 62
     7
 10
12.5417
 20
4.6406
 30
0
 11
12.8611
 21
4.6406
 31
0
  0
LINE
  8
LAYER1
  6
CONTINUOUS
 62
     7
 10
12.5417
 20
4.6406
 30
0
 11
12.5417
 21
6.2517
 31
0
  0
ENDBLK
  8
LAYER1
  0
BLOCK
  8
LAYER1
  2
Group48
 70
     0
 10
0
 20
0
 30
0
  0
LINE
  8
LAYER1
  6
CONTINUOUS
 62
     7
 10
12.8611
 20
6.2517
 30
0
 11
12.8611
 21
4.6406
 31
0
  0
POLYLINE
  8
LAYER1
  6
CONTINUOUS
 62
     7
 66
     1
 70
     0
 40
0.0039
 41
0.0039
  0
VERTEX
  8
LAYER1
 10
12.6667
 20
4.3767
 30
0
 70
     0
  0
VERTEX
  8
LAYER1
 10
12.6667
 20
4.5295
 30
0
 70
     0
  0
VERTEX
  8
LAYER1
 10
12.75
 20
4.5295
 30
0
 70
     0
  0
VERTEX
  8
LAYER1
 10
12.75
 20
4.3767
 30
0
 70
     0
  0
SEQEND
  0
LINE
  8
LAYER1
  6
CONTINUOUS
 62
     7
 10
13.0139
 20
4.4601
 30
0
 11
12.75
 21
4.4601
 31
0
  0
LINE
  8
LAYER1
  6
CONTINUOUS
 62
     7
 10
12.8611
 20
4.6406
 30
0
 11
13.0139
 21
4.4601
 31
0
  0
LINE
  8
LAYER1
  6
CONTINUOUS
 62
     7
 10
12.6667
 20
4.4601
 30
0
 11
12.3889
 21
4.4601
 31
0
  0
LINE
  8
LAYER1
  6
CONTINUOUS
 62
     7
 10
12.5417
 20
4.6406
 30
0
 11
12.3889
 21
4.4601
 31
0
  0
POLYLINE
  8
LAYER1
  6
CONTINUOUS
 62
     7
 66
     1
 70
     0
 40
0.0039
 41
0.0039
  0
VERTEX
  8
LAYER1
 10
12.6528
 20
4.3767
 30
0
 70
     0
  0
VERTEX
  8
LAYER1
 10
12.625
 20
4.3767
 30
0
 70
     0
  0
VERTEX
  8
LAYER1
 10
12.5556
 20
4.3906
 30
0
 70
     0
  0
VERTEX
  8
LAYER1
 10
12.4722
 20
4.4184
 30
0
 70
     0
  0
VERTEX
  8
LAYER1
 10
12.4167
 20
4.4462
 30
0
 70
     0
  0
VERTEX
  8
LAYER1
 10
12.3889
 20
4.4601
 30
0
 70
     0
  0
SEQEND
  0
POLYLINE
  8
LAYER1
  6
CONTINUOUS
 62
     7
 66
     1
 70
     0
 40
0.0039
 41
0.0039
  0
VERTEX
  8
LAYER1
 10
13.0139
 20
4.4601
 30
0
 70
     0
  0
VERTEX
  8
LAYER1
 10
12.9722
 20
4.4323
 30
0
 70
     0
  0
VERTEX
  8
LAYER1
 10
12.9167
 20
4.4045
 30
0
 70
     0
  0
VERTEX
  8
LAYER1
 10
12.8611
 20
4.3906
 30
0
 70
     0
  0
VERTEX
  8
LAYER1
 10
12.7917
 20
4.3767
 30
0
 70
     0
  0
VERTEX
  8
LAYER1
 10
12.75
 20
4.3767
 30
0
 70
     0
  0
SEQEND
  0
ENDBLK
  8
LAYER1
  0
BLOCK
  8
LAYER1
  2
Group49
 70
     0
 10
0
 20
0
 30
0
  0
INSERT
  8
LAYER1
  2
Group47
 10
0
 20
0
 30
0
  0
INSERT
  8
LAYER1
  2
Group48
 10
0
 20
0
 30
0
  0
ENDBLK
  8
LAYER1
  0
BLOCK
  8
LAYER1
  2
Group50
 70
     0
 10
0
 20
0
 30
0
  0
POLYLINE
  8
LAYER1
  6
CONTINUOUS
 62
     7
 66
     1
 70
     0
 40
0.0039
 41
0.0039
  0
VERTEX
  8
LAYER1
 10
12.5417
 20
9.0156
 30
0
 70
     0
  0
VERTEX
  8
LAYER1
 10
12.8611
 20
9.0156
 30
0
 70
     0
  0
VERTEX
  8
LAYER1
 10
12.8333
 20
9.0434
 30
0
 70
     0
  0
SEQEND
  0
LINE
  8
LAYER1
  6
CONTINUOUS
 62
     7
 10
12.5833
 20
9.0434
 30
0
 11
12.8333
 21
9.0434
 31
0
  0
LINE
  8
LAYER1
  6
CONTINUOUS
 62
     7
 10
12.5417
 20
9.0156
 30
0
 11
12.5833
 21
9.0434
 31
0
  0
LINE
  8
LAYER1
  6
CONTINUOUS
 62
     7
 10
12.5694
 20
8.9878
 30
0
 11
12.8333
 21
8.9878
 31
0
  0
LINE
  8
LAYER1
  6
CONTINUOUS
 62
     7
 10
12.5417
 20
8.9739
 30
0
 11
12.8611
 21
8.9739
 31
0
  0
LINE
  8
LAYER1
  6
CONTINUOUS
 62
     7
 10
12.5694
 20
8.9462
 30
0
 11
12.8333
 21
8.9462
 31
0
  0
LINE
  8
LAYER1
  6
CONTINUOUS
 62
     7
 10
12.5417
 20
8.9184
 30
0
 11
12.8611
 21
8.9184
 31
0
  0
LINE
  8
LAYER1
  6
CONTINUOUS
 62
     7
 10
12.5694
 20
8.8906
 30
0
 11
12.8333
 21
8.8906
 31
0
  0
LINE
  8
LAYER1
  6
CONTINUOUS
 62
     7
 10
12.5417
 20
8.8767
 30
0
 11
12.8611
 21
8.8767
 31
0
  0
LINE
  8
LAYER1
  6
CONTINUOUS
 62
     7
 10
12.5694
 20
8.8489
 30
0
 11
12.8333
 21
8.8489
 31
0
  0
LINE
  8
LAYER1
  6
CONTINUOUS
 62
     7
 10
12.5417
 20
8.8212
 30
0
 11
12.8611
 21
8.8212
 31
0
  0
LINE
  8
LAYER1
  6
CONTINUOUS
 62
     7
 10
12.5694
 20
8.8073
 30
0
 11
12.8333
 21
8.8073
 31
0
  0
LINE
  8
LAYER1
  6
CONTINUOUS
 62
     7
 10
12.5417
 20
8.7795
 30
0
 11
12.8611
 21
8.7795
 31
0
  0
LINE
  8
LAYER1
  6
CONTINUOUS
 62
     7
 10
12.5694
 20
8.7517
 30
0
 11
12.8333
 21
8.7517
 31
0
  0
LINE
  8
LAYER1
  6
CONTINUOUS
 62
     7
 10
12.5417
 20
8.7239
 30
0
 11
12.8611
 21
8.7239
 31
0
  0
LINE
  8
LAYER1
  6
CONTINUOUS
 62
     7
 10
12.5694
 20
8.7101
 30
0
 11
12.8333
 21
8.7101
 31
0
  0
LINE
  8
LAYER1
  6
CONTINUOUS
 62
     7
 10
12.5417
 20
8.6823
 30
0
 11
12.8611
 21
8.6823
 31
0
  0
LINE
  8
LAYER1
  6
CONTINUOUS
 62
     7
 10
12.5694
 20
8.6545
 30
0
 11
12.8333
 21
8.6545
 31
0
  0
LINE
  8
LAYER1
  6
CONTINUOUS
 62
     7
 10
12.5417
 20
8.6267
 30
0
 11
12.8611
 21
8.6267
 31
0
  0
LINE
  8
LAYER1
  6
CONTINUOUS
 62
     7
 10
12.5694
 20
8.6128
 30
0
 11
12.8333
 21
8.6128
 31
0
  0
LINE
  8
LAYER1
  6
CONTINUOUS
 62
     7
 10
12.5417
 20
8.5851
 30
0
 11
12.8611
 21
8.5851
 31
0
  0
LINE
  8
LAYER1
  6
CONTINUOUS
 62
     7
 10
12.5694
 20
8.5573
 30
0
 11
12.8333
 21
8.5573
 31
0
  0
LINE
  8
LAYER1
  6
CONTINUOUS
 62
     7
 10
12.5417
 20
8.5295
 30
0
 11
12.8611
 21
8.5295
 31
0
  0
LINE
  8
LAYER1
  6
CONTINUOUS
 62
     7
 10
12.5694
 20
8.5156
 30
0
 11
12.8333
 21
8.5156
 31
0
  0
LINE
  8
LAYER1
  6
CONTINUOUS
 62
     7
 10
12.5417
 20
8.4878
 30
0
 11
12.8611
 21
8.4878
 31
0
  0
LINE
  8
LAYER1
  6
CONTINUOUS
 62
     7
 10
12.5694
 20
8.4601
 30
0
 11
12.8333
 21
8.4601
 31
0
  0
LINE
  8
LAYER1
  6
CONTINUOUS
 62
     7
 10
12.5417
 20
8.4323
 30
0
 11
12.8611
 21
8.4323
 31
0
  0
LINE
  8
LAYER1
  6
CONTINUOUS
 62
     7
 10
12.5694
 20
8.4184
 30
0
 11
12.8333
 21
8.4184
 31
0
  0
LINE
  8
LAYER1
  6
CONTINUOUS
 62
     7
 10
12.5417
 20
8.3906
 30
0
 11
12.8611
 21
8.3906
 31
0
  0
LINE
  8
LAYER1
  6
CONTINUOUS
 62
     7
 10
12.5694
 20
8.3628
 30
0
 11
12.8333
 21
8.3628
 31
0
  0
LINE
  8
LAYER1
  6
CONTINUOUS
 62
     7
 10
12.5417
 20
8.3351
 30
0
 11
12.8611
 21
8.3351
 31
0
  0
LINE
  8
LAYER1
  6
CONTINUOUS
 62
     7
 10
12.5694
 20
8.3212
 30
0
 11
12.8333
 21
8.3212
 31
0
  0
LINE
  8
LAYER1
  6
CONTINUOUS
 62
     7
 10
12.5417
 20
8.2934
 30
0
 11
12.8611
 21
8.2934
 31
0
  0
LINE
  8
LAYER1
  6
CONTINUOUS
 62
     7
 10
12.5694
 20
8.2656
 30
0
 11
12.8333
 21
8.2656
 31
0
  0
LINE
  8
LAYER1
  6
CONTINUOUS
 62
     7
 10
12.5417
 20
8.2378
 30
0
 11
12.8611
 21
8.2378
 31
0
  0
LINE
  8
LAYER1
  6
CONTINUOUS
 62
     7
 10
12.5694
 20
8.2239
 30
0
 11
12.8333
 21
8.2239
 31
0
  0
LINE
  8
LAYER1
  6
CONTINUOUS
 62
     7
 10
12.5417
 20
8.1962
 30
0
 11
12.8611
 21
8.1962
 31
0
  0
LINE
  8
LAYER1
  6
CONTINUOUS
 62
     7
 10
12.5694
 20
8.1684
 30
0
 11
12.8333
 21
8.1684
 31
0
  0
LINE
  8
LAYER1
  6
CONTINUOUS
 62
     7
 10
12.5417
 20
8.1406
 30
0
 11
12.8611
 21
8.1406
 31
0
  0
LINE
  8
LAYER1
  6
CONTINUOUS
 62
     7
 10
12.5694
 20
8.1267
 30
0
 11
12.8333
 21
8.1267
 31
0
  0
LINE
  8
LAYER1
  6
CONTINUOUS
 62
     7
 10
12.5417
 20
8.0989
 30
0
 11
12.8611
 21
8.0989
 31
0
  0
LINE
  8
LAYER1
  6
CONTINUOUS
 62
     7
 10
12.5694
 20
8.0712
 30
0
 11
12.8333
 21
8.0712
 31
0
  0
LINE
  8
LAYER1
  6
CONTINUOUS
 62
     7
 10
12.5417
 20
8.0434
 30
0
 11
12.8611
 21
8.0434
 31
0
  0
LINE
  8
LAYER1
  6
CONTINUOUS
 62
     7
 10
12.5694
 20
8.0295
 30
0
 11
12.8333
 21
8.0295
 31
0
  0
LINE
  8
LAYER1
  6
CONTINUOUS
 62
     7
 10
12.5417
 20
8.0017
 30
0
 11
12.8611
 21
8.0017
 31
0
  0
LINE
  8
LAYER1
  6
CONTINUOUS
 62
     7
 10
12.5694
 20
7.9739
 30
0
 11
12.8333
 21
7.9739
 31
0
  0
LINE
  8
LAYER1
  6
CONTINUOUS
 62
     7
 10
12.5417
 20
7.9462
 30
0
 11
12.8611
 21
7.9462
 31
0
  0
LINE
  8
LAYER1
  6
CONTINUOUS
 62
     7
 10
12.5694
 20
7.9323
 30
0
 11
12.8333
 21
7.9323
 31
0
  0
LINE
  8
LAYER1
  6
CONTINUOUS
 62
     7
 10
12.5417
 20
7.9045
 30
0
 11
12.8611
 21
7.9045
 31
0
  0
LINE
  8
LAYER1
  6
CONTINUOUS
 62
     7
 10
12.5694
 20
7.8767
 30
0
 11
12.8333
 21
7.8767
 31
0
  0
LINE
  8
LAYER1
  6
CONTINUOUS
 62
     7
 10
12.5417
 20
7.8489
 30
0
 11
12.8611
 21
7.8489
 31
0
  0
LINE
  8
LAYER1
  6
CONTINUOUS
 62
     7
 10
12.5694
 20
7.8351
 30
0
 11
12.8333
 21
7.8351
 31
0
  0
LINE
  8
LAYER1
  6
CONTINUOUS
 62
     7
 10
12.5417
 20
7.8073
 30
0
 11
12.8611
 21
7.8073
 31
0
  0
LINE
  8
LAYER1
  6
CONTINUOUS
 62
     7
 10
12.5694
 20
7.7795
 30
0
 11
12.8333
 21
7.7795
 31
0
  0
LINE
  8
LAYER1
  6
CONTINUOUS
 62
     7
 10
12.5417
 20
7.7517
 30
0
 11
12.8611
 21
7.7517
 31
0
  0
LINE
  8
LAYER1
  6
CONTINUOUS
 62
     7
 10
12.5694
 20
7.7378
 30
0
 11
12.8333
 21
7.7378
 31
0
  0
LINE
  8
LAYER1
  6
CONTINUOUS
 62
     7
 10
12.5417
 20
7.7101
 30
0
 11
12.8611
 21
7.7101
 31
0
  0
LINE
  8
LAYER1
  6
CONTINUOUS
 62
     7
 10
12.5694
 20
7.6823
 30
0
 11
12.8333
 21
7.6823
 31
0
  0
LINE
  8
LAYER1
  6
CONTINUOUS
 62
     7
 10
12.5417
 20
7.6545
 30
0
 11
12.8611
 21
7.6545
 31
0
  0
LINE
  8
LAYER1
  6
CONTINUOUS
 62
     7
 10
12.5694
 20
7.6406
 30
0
 11
12.8333
 21
7.6406
 31
0
  0
LINE
  8
LAYER1
  6
CONTINUOUS
 62
     7
 10
12.5417
 20
7.6128
 30
0
 11
12.8611
 21
7.6128
 31
0
  0
LINE
  8
LAYER1
  6
CONTINUOUS
 62
     7
 10
12.5694
 20
7.5851
 30
0
 11
12.8333
 21
7.5851
 31
0
  0
LINE
  8
LAYER1
  6
CONTINUOUS
 62
     7
 10
12.5417
 20
7.5573
 30
0
 11
12.8611
 21
7.5573
 31
0
  0
LINE
  8
LAYER1
  6
CONTINUOUS
 62
     7
 10
12.5694
 20
7.5434
 30
0
 11
12.8333
 21
7.5434
 31
0
  0
LINE
  8
LAYER1
  6
CONTINUOUS
 62
     7
 10
12.5417
 20
7.5156
 30
0
 11
12.8611
 21
7.5156
 31
0
  0
LINE
  8
LAYER1
  6
CONTINUOUS
 62
     7
 10
12.5694
 20
7.4878
 30
0
 11
12.8333
 21
7.4878
 31
0
  0
LINE
  8
LAYER1
  6
CONTINUOUS
 62
     7
 10
12.5417
 20
7.4739
 30
0
 11
12.8611
 21
7.4739
 31
0
  0
LINE
  8
LAYER1
  6
CONTINUOUS
 62
     7
 10
12.5694
 20
7.4462
 30
0
 11
12.8333
 21
7.4462
 31
0
  0
LINE
  8
LAYER1
  6
CONTINUOUS
 62
     7
 10
12.5417
 20
7.4184
 30
0
 11
12.8611
 21
7.4184
 31
0
  0
LINE
  8
LAYER1
  6
CONTINUOUS
 62
     7
 10
12.5694
 20
7.3906
 30
0
 11
12.8333
 21
7.3906
 31
0
  0
LINE
  8
LAYER1
  6
CONTINUOUS
 62
     7
 10
12.5417
 20
7.3767
 30
0
 11
12.8611
 21
7.3767
 31
0
  0
LINE
  8
LAYER1
  6
CONTINUOUS
 62
     7
 10
12.5694
 20
7.3489
 30
0
 11
12.8333
 21
7.3489
 31
0
  0
LINE
  8
LAYER1
  6
CONTINUOUS
 62
     7
 10
12.5417
 20
7.3212
 30
0
 11
12.8611
 21
7.3212
 31
0
  0
LINE
  8
LAYER1
  6
CONTINUOUS
 62
     7
 10
12.5694
 20
7.2934
 30
0
 11
12.8333
 21
7.2934
 31
0
  0
LINE
  8
LAYER1
  6
CONTINUOUS
 62
     7
 10
12.5417
 20
7.2795
 30
0
 11
12.8611
 21
7.2795
 31
0
  0
LINE
  8
LAYER1
  6
CONTINUOUS
 62
     7
 10
12.5694
 20
7.2517
 30
0
 11
12.8333
 21
7.2517
 31
0
  0
LINE
  8
LAYER1
  6
CONTINUOUS
 62
     7
 10
12.5417
 20
7.2239
 30
0
 11
12.8611
 21
7.2239
 31
0
  0
LINE
  8
LAYER1
  6
CONTINUOUS
 62
     7
 10
12.5694
 20
7.1962
 30
0
 11
12.8333
 21
7.1962
 31
0
  0
LINE
  8
LAYER1
  6
CONTINUOUS
 62
     7
 10
12.5417
 20
7.1823
 30
0
 11
12.8611
 21
7.1823
 31
0
  0
LINE
  8
LAYER1
  6
CONTINUOUS
 62
     7
 10
12.5417
 20
7.1823
 30
0
 11
12.5417
 21
9.0156
 31
0
  0
ENDBLK
  8
LAYER1
  0
BLOCK
  8
LAYER1
  2
Group51
 70
     0
 10
0
 20
0
 30
0
  0
LINE
  8
LAYER1
  6
CONTINUOUS
 62
     7
 10
12.8611
 20
9.0156
 30
0
 11
12.8611
 21
7.1823
 31
0
  0
POLYLINE
  8
LAYER1
  6
CONTINUOUS
 62
     7
 66
     1
 70
     0
 40
0.0039
 41
0.0039
  0
VERTEX
  8
LAYER1
 10
12.6667
 20
6.9184
 30
0
 70
     0
  0
VERTEX
  8
LAYER1
 10
12.6667
 20
7.0712
 30
0
 70
     0
  0
VERTEX
  8
LAYER1
 10
12.75
 20
7.0712
 30
0
 70
     0
  0
VERTEX
  8
LAYER1
 10
12.75
 20
6.9184
 30
0
 70
     0
  0
SEQEND
  0
LINE
  8
LAYER1
  6
CONTINUOUS
 62
     7
 10
13.0139
 20
7.0017
 30
0
 11
12.75
 21
7.0017
 31
0
  0
LINE
  8
LAYER1
  6
CONTINUOUS
 62
     7
 10
12.8611
 20
7.1823
 30
0
 11
13.0139
 21
7.0017
 31
0
  0
LINE
  8
LAYER1
  6
CONTINUOUS
 62
     7
 10
12.6667
 20
7.0017
 30
0
 11
12.3889
 21
7.0017
 31
0
  0
LINE
  8
LAYER1
  6
CONTINUOUS
 62
     7
 10
12.5417
 20
7.1823
 30
0
 11
12.3889
 21
7.0017
 31
0
  0
POLYLINE
  8
LAYER1
  6
CONTINUOUS
 62
     7
 66
     1
 70
     0
 40
0.0039
 41
0.0039
  0
VERTEX
  8
LAYER1
 10
12.6528
 20
6.9184
 30
0
 70
     0
  0
VERTEX
  8
LAYER1
 10
12.625
 20
6.9184
 30
0
 70
     0
  0
VERTEX
  8
LAYER1
 10
12.5556
 20
6.9323
 30
0
 70
     0
  0
VERTEX
  8
LAYER1
 10
12.4722
 20
6.9601
 30
0
 70
     0
  0
VERTEX
  8
LAYER1
 10
12.4167
 20
6.9878
 30
0
 70
     0
  0
VERTEX
  8
LAYER1
 10
12.3889
 20
7.0017
 30
0
 70
     0
  0
SEQEND
  0
POLYLINE
  8
LAYER1
  6
CONTINUOUS
 62
     7
 66
     1
 70
     0
 40
0.0039
 41
0.0039
  0
VERTEX
  8
LAYER1
 10
13.0139
 20
7.0017
 30
0
 70
     0
  0
VERTEX
  8
LAYER1
 10
12.9722
 20
6.9739
 30
0
 70
     0
  0
VERTEX
  8
LAYER1
 10
12.9167
 20
6.9462
 30
0
 70
     0
  0
VERTEX
  8
LAYER1
 10
12.8611
 20
6.9323
 30
0
 70
     0
  0
VERTEX
  8
LAYER1
 10
12.7917
 20
6.9184
 30
0
 70
     0
  0
VERTEX
  8
LAYER1
 10
12.75
 20
6.9184
 30
0
 70
     0
  0
SEQEND
  0
ENDBLK
  8
LAYER1
  0
BLOCK
  8
LAYER1
  2
Group52
 70
     0
 10
0
 20
0
 30
0
  0
INSERT
  8
LAYER1
  2
Group50
 10
0
 20
0
 30
0
  0
INSERT
  8
LAYER1
  2
Group51
 10
0
 20
0
 30
0
  0
ENDBLK
  8
LAYER1
  0
BLOCK
  8
LAYER1
  2
Group53
 70
     0
 10
0
 20
0
 30
0
  0
LINE
  8
LAYER1
  6
CONTINUOUS
 62
     7
 10
4.25
 20
4.5434
 30
0
 11
4.5139
 21
4.5434
 31
0
  0
LINE
  8
LAYER1
  6
CONTINUOUS
 62
     7
 10
4.2222
 20
4.5295
 30
0
 11
4.5417
 21
4.5295
 31
0
  0
LINE
  8
LAYER1
  6
CONTINUOUS
 62
     7
 10
4.25
 20
4.5017
 30
0
 11
4.5139
 21
4.5017
 31
0
  0
LINE
  8
LAYER1
  6
CONTINUOUS
 62
     7
 10
4.2222
 20
4.4739
 30
0
 11
4.5417
 21
4.4739
 31
0
  0
LINE
  8
LAYER1
  6
CONTINUOUS
 62
     7
 10
4.25
 20
4.4462
 30
0
 11
4.5139
 21
4.4462
 31
0
  0
LINE
  8
LAYER1
  6
CONTINUOUS
 62
     7
 10
4.2222
 20
4.4323
 30
0
 11
4.5417
 21
4.4323
 31
0
  0
LINE
  8
LAYER1
  6
CONTINUOUS
 62
     7
 10
4.25
 20
4.4045
 30
0
 11
4.5139
 21
4.4045
 31
0
  0
LINE
  8
LAYER1
  6
CONTINUOUS
 62
     7
 10
4.2222
 20
4.3767
 30
0
 11
4.5417
 21
4.3767
 31
0
  0
LINE
  8
LAYER1
  6
CONTINUOUS
 62
     7
 10
4.25
 20
4.3489
 30
0
 11
4.5139
 21
4.3489
 31
0
  0
LINE
  8
LAYER1
  6
CONTINUOUS
 62
     7
 10
4.2222
 20
4.3351
 30
0
 11
4.5417
 21
4.3351
 31
0
  0
LINE
  8
LAYER1
  6
CONTINUOUS
 62
     7
 10
4.25
 20
4.3073
 30
0
 11
4.5139
 21
4.3073
 31
0
  0
LINE
  8
LAYER1
  6
CONTINUOUS
 62
     7
 10
4.2222
 20
4.2795
 30
0
 11
4.5417
 21
4.2795
 31
0
  0
LINE
  8
LAYER1
  6
CONTINUOUS
 62
     7
 10
4.25
 20
4.2517
 30
0
 11
4.5139
 21
4.2517
 31
0
  0
LINE
  8
LAYER1
  6
CONTINUOUS
 62
     7
 10
4.2222
 20
4.2378
 30
0
 11
4.5417
 21
4.2378
 31
0
  0
LINE
  8
LAYER1
  6
CONTINUOUS
 62
     7
 10
4.2222
 20
4.2101
 30
0
 11
4.5417
 21
4.2101
 31
0
  0
LINE
  8
LAYER1
  6
CONTINUOUS
 62
     7
 10
4.2222
 20
4.5712
 30
0
 11
4.2222
 21
4.2101
 31
0
  0
LINE
  8
LAYER1
  6
CONTINUOUS
 62
     7
 10
4.5417
 20
4.2101
 30
0
 11
4.5417
 21
4.5712
 31
0
  0
POLYLINE
  8
LAYER1
  6
CONTINUOUS
 62
     7
 66
     1
 70
     0
 40
0.0039
 41
0.0039
  0
VERTEX
  8
LAYER1
 10
4.2222
 20
4.5712
 30
0
 70
     0
  0
VERTEX
  8
LAYER1
 10
4.5417
 20
4.5712
 30
0
 70
     0
  0
VERTEX
  8
LAYER1
 10
4.5139
 20
4.5989
 30
0
 70
     0
  0
SEQEND
  0
LINE
  8
LAYER1
  6
CONTINUOUS
 62
     7
 10
4.2639
 20
4.5989
 30
0
 11
4.5139
 21
4.5989
 31
0
  0
ENDBLK
  8
LAYER1
  0
BLOCK
  8
LAYER1
  2
Group54
 70
     0
 10
0
 20
0
 30
0
  0
LINE
  8
LAYER1
  6
CONTINUOUS
 62
     7
 10
4.2222
 20
4.5712
 30
0
 11
4.2639
 21
4.5989
 31
0
  0
POLYLINE
  8
LAYER1
  6
CONTINUOUS
 62
     7
 66
     1
 70
     0
 40
0.0039
 41
0.0039
  0
VERTEX
  8
LAYER1
 10
4.3333
 20
3.9462
 30
0
 70
     0
  0
VERTEX
  8
LAYER1
 10
4.3333
 20
4.0989
 30
0
 70
     0
  0
VERTEX
  8
LAYER1
 10
4.4306
 20
4.0989
 30
0
 70
     0
  0
VERTEX
  8
LAYER1
 10
4.4306
 20
3.9462
 30
0
 70
     0
  0
SEQEND
  0
LINE
  8
LAYER1
  6
CONTINUOUS
 62
     7
 10
4.6944
 20
4.0295
 30
0
 11
4.4306
 21
4.0295
 31
0
  0
LINE
  8
LAYER1
  6
CONTINUOUS
 62
     7
 10
4.5417
 20
4.2101
 30
0
 11
4.6944
 21
4.0295
 31
0
  0
LINE
  8
LAYER1
  6
CONTINUOUS
 62
     7
 10
4.3333
 20
4.0295
 30
0
 11
4.0694
 21
4.0295
 31
0
  0
LINE
  8
LAYER1
  6
CONTINUOUS
 62
     7
 10
4.2222
 20
4.2101
 30
0
 11
4.0694
 21
4.0295
 31
0
  0
POLYLINE
  8
LAYER1
  6
CONTINUOUS
 62
     7
 66
     1
 70
     0
 40
0.0039
 41
0.0039
  0
VERTEX
  8
LAYER1
 10
4.3333
 20
3.9462
 30
0
 70
     0
  0
VERTEX
  8
LAYER1
 10
4.3056
 20
3.9462
 30
0
 70
     0
  0
VERTEX
  8
LAYER1
 10
4.2361
 20
3.9601
 30
0
 70
     0
  0
VERTEX
  8
LAYER1
 10
4.1528
 20
3.9878
 30
0
 70
     0
  0
VERTEX
  8
LAYER1
 10
4.0972
 20
4.0156
 30
0
 70
     0
  0
VERTEX
  8
LAYER1
 10
4.0694
 20
4.0295
 30
0
 70
     0
  0
SEQEND
  0
POLYLINE
  8
LAYER1
  6
CONTINUOUS
 62
     7
 66
     1
 70
     0
 40
0.0039
 41
0.0039
  0
VERTEX
  8
LAYER1
 10
4.6944
 20
4.0295
 30
0
 70
     0
  0
VERTEX
  8
LAYER1
 10
4.6528
 20
4.0017
 30
0
 70
     0
  0
VERTEX
  8
LAYER1
 10
4.5972
 20
3.9739
 30
0
 70
     0
  0
VERTEX
  8
LAYER1
 10
4.5417
 20
3.9601
 30
0
 70
     0
  0
VERTEX
  8
LAYER1
 10
4.4722
 20
3.9462
 30
0
 70
     0
  0
VERTEX
  8
LAYER1
 10
4.4306
 20
3.9462
 30
0
 70
     0
  0
SEQEND
  0
ENDBLK
  8
LAYER1
  0
BLOCK
  8
LAYER1
  2
Group55
 70
     0
 10
0
 20
0
 30
0
  0
INSERT
  8
LAYER1
  2
Group53
 10
0
 20
0
 30
0
  0
INSERT
  8
LAYER1
  2
Group54
 10
0
 20
0
 30
0
  0
ENDBLK
  8
LAYER1
  0
BLOCK
  8
LAYER1
  2
Group56
 70
     0
 10
0
 20
0
 30
0
  0
LINE
  8
LAYER1
  6
CONTINUOUS
 62
     7
 10
4.2222
 20
4.9184
 30
0
 11
4.5417
 21
4.9184
 31
0
  0
LINE
  8
LAYER1
  6
CONTINUOUS
 62
     7
 10
4.2222
 20
4.9184
 30
0
 11
4.2222
 21
5.3628
 31
0
  0
LINE
  8
LAYER1
  6
CONTINUOUS
 62
     7
 10
4.5417
 20
4.9184
 30
0
 11
4.5417
 21
5.3628
 31
0
  0
POLYLINE
  8
LAYER1
  6
CONTINUOUS
 62
     7
 66
     1
 70
     0
 40
0.0039
 41
0.0039
  0
VERTEX
  8
LAYER1
 10
4.2222
 20
5.3628
 30
0
 70
     0
  0
VERTEX
  8
LAYER1
 10
4.5417
 20
5.3628
 30
0
 70
     0
  0
VERTEX
  8
LAYER1
 10
4.5139
 20
5.3906
 30
0
 70
     0
  0
SEQEND
  0
LINE
  8
LAYER1
  6
CONTINUOUS
 62
     7
 10
4.2639
 20
5.3906
 30
0
 11
4.5139
 21
5.3906
 31
0
  0
LINE
  8
LAYER1
  6
CONTINUOUS
 62
     7
 10
4.2222
 20
5.3628
 30
0
 11
4.2639
 21
5.3906
 31
0
  0
LINE
  8
LAYER1
  6
CONTINUOUS
 62
     7
 10
4.25
 20
5.3351
 30
0
 11
4.5139
 21
5.3351
 31
0
  0
LINE
  8
LAYER1
  6
CONTINUOUS
 62
     7
 10
4.2222
 20
5.3212
 30
0
 11
4.5417
 21
5.3212
 31
0
  0
LINE
  8
LAYER1
  6
CONTINUOUS
 62
     7
 10
4.25
 20
5.2934
 30
0
 11
4.5139
 21
5.2934
 31
0
  0
LINE
  8
LAYER1
  6
CONTINUOUS
 62
     7
 10
4.2222
 20
5.2656
 30
0
 11
4.5417
 21
5.2656
 31
0
  0
LINE
  8
LAYER1
  6
CONTINUOUS
 62
     7
 10
4.25
 20
5.2378
 30
0
 11
4.5139
 21
5.2378
 31
0
  0
LINE
  8
LAYER1
  6
CONTINUOUS
 62
     7
 10
4.2222
 20
5.2239
 30
0
 11
4.5417
 21
5.2239
 31
0
  0
LINE
  8
LAYER1
  6
CONTINUOUS
 62
     7
 10
4.25
 20
5.1962
 30
0
 11
4.5139
 21
5.1962
 31
0
  0
LINE
  8
LAYER1
  6
CONTINUOUS
 62
     7
 10
4.2222
 20
5.1684
 30
0
 11
4.5417
 21
5.1684
 31
0
  0
LINE
  8
LAYER1
  6
CONTINUOUS
 62
     7
 10
4.25
 20
5.1406
 30
0
 11
4.5139
 21
5.1406
 31
0
  0
LINE
  8
LAYER1
  6
CONTINUOUS
 62
     7
 10
4.2222
 20
5.1267
 30
0
 11
4.5417
 21
5.1267
 31
0
  0
LINE
  8
LAYER1
  6
CONTINUOUS
 62
     7
 10
4.25
 20
5.0989
 30
0
 11
4.5139
 21
5.0989
 31
0
  0
LINE
  8
LAYER1
  6
CONTINUOUS
 62
     7
 10
4.2222
 20
5.0712
 30
0
 11
4.5417
 21
5.0712
 31
0
  0
LINE
  8
LAYER1
  6
CONTINUOUS
 62
     7
 10
4.25
 20
5.0434
 30
0
 11
4.5139
 21
5.0434
 31
0
  0
LINE
  8
LAYER1
  6
CONTINUOUS
 62
     7
 10
4.2222
 20
5.0295
 30
0
 11
4.5417
 21
5.0295
 31
0
  0
LINE
  8
LAYER1
  6
CONTINUOUS
 62
     7
 10
4.25
 20
5.0017
 30
0
 11
4.5139
 21
5.0017
 31
0
  0
LINE
  8
LAYER1
  6
CONTINUOUS
 62
     7
 10
4.2222
 20
4.9739
 30
0
 11
4.5417
 21
4.9739
 31
0
  0
LINE
  8
LAYER1
  6
CONTINUOUS
 62
     7
 10
4.25
 20
4.9462
 30
0
 11
4.5139
 21
4.9462
 31
0
  0
ENDBLK
  8
LAYER1
  0
BLOCK
  8
LAYER1
  2
Group57
 70
     0
 10
0
 20
0
 30
0
  0
LINE
  8
LAYER1
  6
CONTINUOUS
 62
     7
 10
4.2222
 20
4.9323
 30
0
 11
4.5417
 21
4.9323
 31
0
  0
POLYLINE
  8
LAYER1
  6
CONTINUOUS
 62
     7
 66
     1
 70
     0
 40
0.0039
 41
0.0039
  0
VERTEX
  8
LAYER1
 10
4.3333
 20
4.6545
 30
0
 70
     0
  0
VERTEX
  8
LAYER1
 10
4.3333
 20
4.8073
 30
0
 70
     0
  0
VERTEX
  8
LAYER1
 10
4.4306
 20
4.8073
 30
0
 70
     0
  0
VERTEX
  8
LAYER1
 10
4.4306
 20
4.6545
 30
0
 70
     0
  0
SEQEND
  0
LINE
  8
LAYER1
  6
CONTINUOUS
 62
     7
 10
4.6944
 20
4.7378
 30
0
 11
4.4306
 21
4.7378
 31
0
  0
LINE
  8
LAYER1
  6
CONTINUOUS
 62
     7
 10
4.5417
 20
4.9184
 30
0
 11
4.6944
 21
4.7378
 31
0
  0
LINE
  8
LAYER1
  6
CONTINUOUS
 62
     7
 10
4.3333
 20
4.7378
 30
0
 11
4.0694
 21
4.7378
 31
0
  0
LINE
  8
LAYER1
  6
CONTINUOUS
 62
     7
 10
4.2222
 20
4.9184
 30
0
 11
4.0694
 21
4.7378
 31
0
  0
POLYLINE
  8
LAYER1
  6
CONTINUOUS
 62
     7
 66
     1
 70
     0
 40
0.0039
 41
0.0039
  0
VERTEX
  8
LAYER1
 10
4.3333
 20
4.6545
 30
0
 70
     0
  0
VERTEX
  8
LAYER1
 10
4.3056
 20
4.6545
 30
0
 70
     0
  0
VERTEX
  8
LAYER1
 10
4.2361
 20
4.6684
 30
0
 70
     0
  0
VERTEX
  8
LAYER1
 10
4.1528
 20
4.6962
 30
0
 70
     0
  0
VERTEX
  8
LAYER1
 10
4.0972
 20
4.7239
 30
0
 70
     0
  0
VERTEX
  8
LAYER1
 10
4.0694
 20
4.7378
 30
0
 70
     0
  0
SEQEND
  0
POLYLINE
  8
LAYER1
  6
CONTINUOUS
 62
     7
 66
     1
 70
     0
 40
0.0039
 41
0.0039
  0
VERTEX
  8
LAYER1
 10
4.6944
 20
4.7378
 30
0
 70
     0
  0
VERTEX
  8
LAYER1
 10
4.6667
 20
4.7239
 30
0
 70
     0
  0
VERTEX
  8
LAYER1
 10
4.6111
 20
4.6962
 30
0
 70
     0
  0
VERTEX
  8
LAYER1
 10
4.5278
 20
4.6684
 30
0
 70
     0
  0
VERTEX
  8
LAYER1
 10
4.4583
 20
4.6545
 30
0
 70
     0
  0
VERTEX
  8
LAYER1
 10
4.4306
 20
4.6545
 30
0
 70
     0
  0
SEQEND
  0
ENDBLK
  8
LAYER1
  0
BLOCK
  8
LAYER1
  2
Group58
 70
     0
 10
0
 20
0
 30
0
  0
INSERT
  8
LAYER1
  2
Group56
 10
0
 20
0
 30
0
  0
INSERT
  8
LAYER1
  2
Group57
 10
0
 20
0
 30
0
  0
ENDBLK
  8
LAYER1
  0
BLOCK
  8
LAYER1
  2
Group59
 70
     0
 10
0
 20
0
 30
0
  0
POLYLINE
  8
LAYER1
  6
CONTINUOUS
 62
     7
 66
     1
 70
     0
 40
0.0039
 41
0.0039
  0
VERTEX
  8
LAYER1
 10
4.2222
 20
6.2378
 30
0
 70
     0
  0
VERTEX
  8
LAYER1
 10
4.5417
 20
6.2378
 30
0
 70
     0
  0
VERTEX
  8
LAYER1
 10
4.5139
 20
6.2656
 30
0
 70
     0
  0
SEQEND
  0
LINE
  8
LAYER1
  6
CONTINUOUS
 62
     7
 10
4.2639
 20
6.2656
 30
0
 11
4.5139
 21
6.2656
 31
0
  0
LINE
  8
LAYER1
  6
CONTINUOUS
 62
     7
 10
4.2222
 20
6.2378
 30
0
 11
4.2639
 21
6.2656
 31
0
  0
LINE
  8
LAYER1
  6
CONTINUOUS
 62
     7
 10
4.25
 20
6.2239
 30
0
 11
4.5139
 21
6.2239
 31
0
  0
LINE
  8
LAYER1
  6
CONTINUOUS
 62
     7
 10
4.2222
 20
6.1962
 30
0
 11
4.5417
 21
6.1962
 31
0
  0
LINE
  8
LAYER1
  6
CONTINUOUS
 62
     7
 10
4.25
 20
6.1684
 30
0
 11
4.5139
 21
6.1684
 31
0
  0
LINE
  8
LAYER1
  6
CONTINUOUS
 62
     7
 10
4.2222
 20
6.1406
 30
0
 11
4.5417
 21
6.1406
 31
0
  0
LINE
  8
LAYER1
  6
CONTINUOUS
 62
     7
 10
4.25
 20
6.1267
 30
0
 11
4.5139
 21
6.1267
 31
0
  0
LINE
  8
LAYER1
  6
CONTINUOUS
 62
     7
 10
4.2222
 20
6.0989
 30
0
 11
4.5417
 21
6.0989
 31
0
  0
LINE
  8
LAYER1
  6
CONTINUOUS
 62
     7
 10
4.25
 20
6.0712
 30
0
 11
4.5139
 21
6.0712
 31
0
  0
LINE
  8
LAYER1
  6
CONTINUOUS
 62
     7
 10
4.2222
 20
6.0573
 30
0
 11
4.5417
 21
6.0573
 31
0
  0
LINE
  8
LAYER1
  6
CONTINUOUS
 62
     7
 10
4.25
 20
6.0295
 30
0
 11
4.5139
 21
6.0295
 31
0
  0
LINE
  8
LAYER1
  6
CONTINUOUS
 62
     7
 10
4.2222
 20
6.0017
 30
0
 11
4.5417
 21
6.0017
 31
0
  0
LINE
  8
LAYER1
  6
CONTINUOUS
 62
     7
 10
4.25
 20
5.9739
 30
0
 11
4.5139
 21
5.9739
 31
0
  0
LINE
  8
LAYER1
  6
CONTINUOUS
 62
     7
 10
4.2222
 20
5.9601
 30
0
 11
4.5417
 21
5.9601
 31
0
  0
LINE
  8
LAYER1
  6
CONTINUOUS
 62
     7
 10
4.25
 20
5.9323
 30
0
 11
4.5139
 21
5.9323
 31
0
  0
LINE
  8
LAYER1
  6
CONTINUOUS
 62
     7
 10
4.2222
 20
5.9045
 30
0
 11
4.5417
 21
5.9045
 31
0
  0
LINE
  8
LAYER1
  6
CONTINUOUS
 62
     7
 10
4.25
 20
5.8767
 30
0
 11
4.5139
 21
5.8767
 31
0
  0
LINE
  8
LAYER1
  6
CONTINUOUS
 62
     7
 10
4.2222
 20
5.8628
 30
0
 11
4.5417
 21
5.8628
 31
0
  0
LINE
  8
LAYER1
  6
CONTINUOUS
 62
     7
 10
4.25
 20
5.8351
 30
0
 11
4.5139
 21
5.8351
 31
0
  0
LINE
  8
LAYER1
  6
CONTINUOUS
 62
     7
 10
4.2222
 20
5.8073
 30
0
 11
4.5417
 21
5.8073
 31
0
  0
LINE
  8
LAYER1
  6
CONTINUOUS
 62
     7
 10
4.25
 20
5.7795
 30
0
 11
4.5139
 21
5.7795
 31
0
  0
LINE
  8
LAYER1
  6
CONTINUOUS
 62
     7
 10
4.2222
 20
5.7656
 30
0
 11
4.5417
 21
5.7656
 31
0
  0
LINE
  8
LAYER1
  6
CONTINUOUS
 62
     7
 10
4.25
 20
5.7378
 30
0
 11
4.5139
 21
5.7378
 31
0
  0
LINE
  8
LAYER1
  6
CONTINUOUS
 62
     7
 10
4.2222
 20
5.7239
 30
0
 11
4.5417
 21
5.7239
 31
0
  0
LINE
  8
LAYER1
  6
CONTINUOUS
 62
     7
 10
4.2222
 20
5.7239
 30
0
 11
4.2222
 21
6.2378
 31
0
  0
ENDBLK
  8
LAYER1
  0
BLOCK
  8
LAYER1
  2
Group60
 70
     0
 10
0
 20
0
 30
0
  0
LINE
  8
LAYER1
  6
CONTINUOUS
 62
     7
 10
4.5417
 20
5.7239
 30
0
 11
4.5417
 21
6.2378
 31
0
  0
POLYLINE
  8
LAYER1
  6
CONTINUOUS
 62
     7
 66
     1
 70
     0
 40
0.0039
 41
0.0039
  0
VERTEX
  8
LAYER1
 10
4.3333
 20
5.4601
 30
0
 70
     0
  0
VERTEX
  8
LAYER1
 10
4.3333
 20
5.6128
 30
0
 70
     0
  0
VERTEX
  8
LAYER1
 10
4.4306
 20
5.6128
 30
0
 70
     0
  0
VERTEX
  8
LAYER1
 10
4.4306
 20
5.4601
 30
0
 70
     0
  0
SEQEND
  0
LINE
  8
LAYER1
  6
CONTINUOUS
 62
     7
 10
4.6944
 20
5.5434
 30
0
 11
4.4306
 21
5.5434
 31
0
  0
LINE
  8
LAYER1
  6
CONTINUOUS
 62
     7
 10
4.5417
 20
5.7239
 30
0
 11
4.6944
 21
5.5434
 31
0
  0
LINE
  8
LAYER1
  6
CONTINUOUS
 62
     7
 10
4.3333
 20
5.5434
 30
0
 11
4.0694
 21
5.5434
 31
0
  0
LINE
  8
LAYER1
  6
CONTINUOUS
 62
     7
 10
4.2222
 20
5.7239
 30
0
 11
4.0694
 21
5.5434
 31
0
  0
POLYLINE
  8
LAYER1
  6
CONTINUOUS
 62
     7
 66
     1
 70
     0
 40
0.0039
 41
0.0039
  0
VERTEX
  8
LAYER1
 10
4.3333
 20
5.4601
 30
0
 70
     0
  0
VERTEX
  8
LAYER1
 10
4.3056
 20
5.4601
 30
0
 70
     0
  0
VERTEX
  8
LAYER1
 10
4.2361
 20
5.4739
 30
0
 70
     0
  0
VERTEX
  8
LAYER1
 10
4.1528
 20
5.5017
 30
0
 70
     0
  0
VERTEX
  8
LAYER1
 10
4.0972
 20
5.5295
 30
0
 70
     0
  0
VERTEX
  8
LAYER1
 10
4.0694
 20
5.5434
 30
0
 70
     0
  0
SEQEND
  0
POLYLINE
  8
LAYER1
  6
CONTINUOUS
 62
     7
 66
     1
 70
     0
 40
0.0039
 41
0.0039
  0
VERTEX
  8
LAYER1
 10
4.6944
 20
5.5434
 30
0
 70
     0
  0
VERTEX
  8
LAYER1
 10
4.6528
 20
5.5156
 30
0
 70
     0
  0
VERTEX
  8
LAYER1
 10
4.5972
 20
5.4878
 30
0
 70
     0
  0
VERTEX
  8
LAYER1
 10
4.5417
 20
5.4739
 30
0
 70
     0
  0
VERTEX
  8
LAYER1
 10
4.4722
 20
5.4601
 30
0
 70
     0
  0
VERTEX
  8
LAYER1
 10
4.4306
 20
5.4601
 30
0
 70
     0
  0
SEQEND
  0
ENDBLK
  8
LAYER1
  0
BLOCK
  8
LAYER1
  2
Group61
 70
     0
 10
0
 20
0
 30
0
  0
INSERT
  8
LAYER1
  2
Group59
 10
0
 20
0
 30
0
  0
INSERT
  8
LAYER1
  2
Group60
 10
0
 20
0
 30
0
  0
ENDBLK
  8
LAYER1
  0
BLOCK
  8
LAYER1
  2
Group62
 70
     0
 10
0
 20
0
 30
0
  0
POLYLINE
  8
LAYER1
  6
CONTINUOUS
 62
     7
 66
     1
 70
     0
 40
0.0039
 41
0.0039
  0
VERTEX
  8
LAYER1
 10
4.2222
 20
7.2934
 30
0
 70
     0
  0
VERTEX
  8
LAYER1
 10
4.5417
 20
7.2934
 30
0
 70
     0
  0
VERTEX
  8
LAYER1
 10
4.5139
 20
7.3212
 30
0
 70
     0
  0
SEQEND
  0
LINE
  8
LAYER1
  6
CONTINUOUS
 62
     7
 10
4.2639
 20
7.3212
 30
0
 11
4.5139
 21
7.3212
 31
0
  0
LINE
  8
LAYER1
  6
CONTINUOUS
 62
     7
 10
4.2222
 20
7.2934
 30
0
 11
4.2639
 21
7.3212
 31
0
  0
LINE
  8
LAYER1
  6
CONTINUOUS
 62
     7
 10
4.25
 20
7.2656
 30
0
 11
4.5139
 21
7.2656
 31
0
  0
LINE
  8
LAYER1
  6
CONTINUOUS
 62
     7
 10
4.2222
 20
7.2378
 30
0
 11
4.5417
 21
7.2378
 31
0
  0
LINE
  8
LAYER1
  6
CONTINUOUS
 62
     7
 10
4.25
 20
7.2239
 30
0
 11
4.5139
 21
7.2239
 31
0
  0
LINE
  8
LAYER1
  6
CONTINUOUS
 62
     7
 10
4.2222
 20
7.1962
 30
0
 11
4.5417
 21
7.1962
 31
0
  0
LINE
  8
LAYER1
  6
CONTINUOUS
 62
     7
 10
4.25
 20
7.1684
 30
0
 11
4.5139
 21
7.1684
 31
0
  0
LINE
  8
LAYER1
  6
CONTINUOUS
 62
     7
 10
4.2222
 20
7.1406
 30
0
 11
4.5417
 21
7.1406
 31
0
  0
LINE
  8
LAYER1
  6
CONTINUOUS
 62
     7
 10
4.25
 20
7.1267
 30
0
 11
4.5139
 21
7.1267
 31
0
  0
LINE
  8
LAYER1
  6
CONTINUOUS
 62
     7
 10
4.2222
 20
7.0989
 30
0
 11
4.5417
 21
7.0989
 31
0
  0
LINE
  8
LAYER1
  6
CONTINUOUS
 62
     7
 10
4.25
 20
7.0712
 30
0
 11
4.5139
 21
7.0712
 31
0
  0
LINE
  8
LAYER1
  6
CONTINUOUS
 62
     7
 10
4.2222
 20
7.0434
 30
0
 11
4.5417
 21
7.0434
 31
0
  0
LINE
  8
LAYER1
  6
CONTINUOUS
 62
     7
 10
4.25
 20
7.0295
 30
0
 11
4.5139
 21
7.0295
 31
0
  0
LINE
  8
LAYER1
  6
CONTINUOUS
 62
     7
 10
4.2222
 20
7.0017
 30
0
 11
4.5417
 21
7.0017
 31
0
  0
LINE
  8
LAYER1
  6
CONTINUOUS
 62
     7
 10
4.25
 20
6.9739
 30
0
 11
4.5139
 21
6.9739
 31
0
  0
LINE
  8
LAYER1
  6
CONTINUOUS
 62
     7
 10
4.2222
 20
6.9462
 30
0
 11
4.5417
 21
6.9462
 31
0
  0
LINE
  8
LAYER1
  6
CONTINUOUS
 62
     7
 10
4.25
 20
6.9323
 30
0
 11
4.5139
 21
6.9323
 31
0
  0
LINE
  8
LAYER1
  6
CONTINUOUS
 62
     7
 10
4.2222
 20
6.9045
 30
0
 11
4.5417
 21
6.9045
 31
0
  0
LINE
  8
LAYER1
  6
CONTINUOUS
 62
     7
 10
4.25
 20
6.8767
 30
0
 11
4.5139
 21
6.8767
 31
0
  0
LINE
  8
LAYER1
  6
CONTINUOUS
 62
     7
 10
4.2222
 20
6.8489
 30
0
 11
4.5417
 21
6.8489
 31
0
  0
LINE
  8
LAYER1
  6
CONTINUOUS
 62
     7
 10
4.25
 20
6.8351
 30
0
 11
4.5139
 21
6.8351
 31
0
  0
LINE
  8
LAYER1
  6
CONTINUOUS
 62
     7
 10
4.2222
 20
6.8073
 30
0
 11
4.5417
 21
6.8073
 31
0
  0
LINE
  8
LAYER1
  6
CONTINUOUS
 62
     7
 10
4.25
 20
6.7795
 30
0
 11
4.5139
 21
6.7795
 31
0
  0
LINE
  8
LAYER1
  6
CONTINUOUS
 62
     7
 10
4.2222
 20
6.7517
 30
0
 11
4.5417
 21
6.7517
 31
0
  0
LINE
  8
LAYER1
  6
CONTINUOUS
 62
     7
 10
4.25
 20
6.7378
 30
0
 11
4.5139
 21
6.7378
 31
0
  0
LINE
  8
LAYER1
  6
CONTINUOUS
 62
     7
 10
4.2222
 20
6.7101
 30
0
 11
4.5417
 21
6.7101
 31
0
  0
LINE
  8
LAYER1
  6
CONTINUOUS
 62
     7
 10
4.2222
 20
6.6962
 30
0
 11
4.5417
 21
6.6962
 31
0
  0
LINE
  8
LAYER1
  6
CONTINUOUS
 62
     7
 10
4.2222
 20
7.2934
 30
0
 11
4.2222
 21
6.6962
 31
0
  0
ENDBLK
  8
LAYER1
  0
BLOCK
  8
LAYER1
  2
Group63
 70
     0
 10
0
 20
0
 30
0
  0
LINE
  8
LAYER1
  6
CONTINUOUS
 62
     7
 10
4.5417
 20
6.6962
 30
0
 11
4.5417
 21
7.2934
 31
0
  0
POLYLINE
  8
LAYER1
  6
CONTINUOUS
 62
     7
 66
     1
 70
     0
 40
0.0039
 41
0.0039
  0
VERTEX
  8
LAYER1
 10
4.3333
 20
6.4323
 30
0
 70
     0
  0
VERTEX
  8
LAYER1
 10
4.3333
 20
6.5851
 30
0
 70
     0
  0
VERTEX
  8
LAYER1
 10
4.4306
 20
6.5851
 30
0
 70
     0
  0
VERTEX
  8
LAYER1
 10
4.4306
 20
6.4323
 30
0
 70
     0
  0
SEQEND
  0
LINE
  8
LAYER1
  6
CONTINUOUS
 62
     7
 10
4.6944
 20
6.5156
 30
0
 11
4.4306
 21
6.5156
 31
0
  0
LINE
  8
LAYER1
  6
CONTINUOUS
 62
     7
 10
4.5417
 20
6.6962
 30
0
 11
4.6944
 21
6.5156
 31
0
  0
LINE
  8
LAYER1
  6
CONTINUOUS
 62
     7
 10
4.3333
 20
6.5156
 30
0
 11
4.0694
 21
6.5156
 31
0
  0
LINE
  8
LAYER1
  6
CONTINUOUS
 62
     7
 10
4.2222
 20
6.6962
 30
0
 11
4.0694
 21
6.5156
 31
0
  0
POLYLINE
  8
LAYER1
  6
CONTINUOUS
 62
     7
 66
     1
 70
     0
 40
0.0039
 41
0.0039
  0
VERTEX
  8
LAYER1
 10
4.3333
 20
6.4323
 30
0
 70
     0
  0
VERTEX
  8
LAYER1
 10
4.2917
 20
6.4323
 30
0
 70
     0
  0
VERTEX
  8
LAYER1
 10
4.2222
 20
6.4462
 30
0
 70
     0
  0
VERTEX
  8
LAYER1
 10
4.1667
 20
6.4601
 30
0
 70
     0
  0
VERTEX
  8
LAYER1
 10
4.0972
 20
6.4878
 30
0
 70
     0
  0
VERTEX
  8
LAYER1
 10
4.0694
 20
6.5156
 30
0
 70
     0
  0
SEQEND
  0
POLYLINE
  8
LAYER1
  6
CONTINUOUS
 62
     7
 66
     1
 70
     0
 40
0.0039
 41
0.0039
  0
VERTEX
  8
LAYER1
 10
4.6944
 20
6.5156
 30
0
 70
     0
  0
VERTEX
  8
LAYER1
 10
4.6528
 20
6.4878
 30
0
 70
     0
  0
VERTEX
  8
LAYER1
 10
4.5972
 20
6.4601
 30
0
 70
     0
  0
VERTEX
  8
LAYER1
 10
4.5417
 20
6.4462
 30
0
 70
     0
  0
VERTEX
  8
LAYER1
 10
4.4722
 20
6.4323
 30
0
 70
     0
  0
VERTEX
  8
LAYER1
 10
4.4306
 20
6.4323
 30
0
 70
     0
  0
SEQEND
  0
ENDBLK
  8
LAYER1
  0
BLOCK
  8
LAYER1
  2
Group64
 70
     0
 10
0
 20
0
 30
0
  0
INSERT
  8
LAYER1
  2
Group62
 10
0
 20
0
 30
0
  0
INSERT
  8
LAYER1
  2
Group63
 10
0
 20
0
 30
0
  0
ENDBLK
  8
LAYER1
  0
BLOCK
  8
LAYER1
  2
Group65
 70
     0
 10
0
 20
0
 30
0
  0
POLYLINE
  8
LAYER1
  6
CONTINUOUS
 62
     7
 66
     1
 70
     0
 40
0.0039
 41
0.0039
  0
VERTEX
  8
LAYER1
 10
4.2222
 20
8.4323
 30
0
 70
     0
  0
VERTEX
  8
LAYER1
 10
4.5417
 20
8.4323
 30
0
 70
     0
  0
VERTEX
  8
LAYER1
 10
4.5139
 20
8.4601
 30
0
 70
     0
  0
SEQEND
  0
LINE
  8
LAYER1
  6
CONTINUOUS
 62
     7
 10
4.2639
 20
8.4601
 30
0
 11
4.5139
 21
8.4601
 31
0
  0
LINE
  8
LAYER1
  6
CONTINUOUS
 62
     7
 10
4.2222
 20
8.4323
 30
0
 11
4.2639
 21
8.4601
 31
0
  0
LINE
  8
LAYER1
  6
CONTINUOUS
 62
     7
 10
4.25
 20
8.4045
 30
0
 11
4.5139
 21
8.4045
 31
0
  0
LINE
  8
LAYER1
  6
CONTINUOUS
 62
     7
 10
4.2222
 20
8.3906
 30
0
 11
4.5417
 21
8.3906
 31
0
  0
LINE
  8
LAYER1
  6
CONTINUOUS
 62
     7
 10
4.25
 20
8.3628
 30
0
 11
4.5139
 21
8.3628
 31
0
  0
LINE
  8
LAYER1
  6
CONTINUOUS
 62
     7
 10
4.2222
 20
8.3351
 30
0
 11
4.5417
 21
8.3351
 31
0
  0
LINE
  8
LAYER1
  6
CONTINUOUS
 62
     7
 10
4.25
 20
8.3073
 30
0
 11
4.5139
 21
8.3073
 31
0
  0
LINE
  8
LAYER1
  6
CONTINUOUS
 62
     7
 10
4.2222
 20
8.2934
 30
0
 11
4.5417
 21
8.2934
 31
0
  0
LINE
  8
LAYER1
  6
CONTINUOUS
 62
     7
 10
4.25
 20
8.2656
 30
0
 11
4.5139
 21
8.2656
 31
0
  0
LINE
  8
LAYER1
  6
CONTINUOUS
 62
     7
 10
4.2222
 20
8.2378
 30
0
 11
4.5417
 21
8.2378
 31
0
  0
LINE
  8
LAYER1
  6
CONTINUOUS
 62
     7
 10
4.25
 20
8.2101
 30
0
 11
4.5139
 21
8.2101
 31
0
  0
LINE
  8
LAYER1
  6
CONTINUOUS
 62
     7
 10
4.2222
 20
8.1962
 30
0
 11
4.5417
 21
8.1962
 31
0
  0
LINE
  8
LAYER1
  6
CONTINUOUS
 62
     7
 10
4.25
 20
8.1684
 30
0
 11
4.5139
 21
8.1684
 31
0
  0
LINE
  8
LAYER1
  6
CONTINUOUS
 62
     7
 10
4.2222
 20
8.1406
 30
0
 11
4.5417
 21
8.1406
 31
0
  0
LINE
  8
LAYER1
  6
CONTINUOUS
 62
     7
 10
4.25
 20
8.1128
 30
0
 11
4.5139
 21
8.1128
 31
0
  0
LINE
  8
LAYER1
  6
CONTINUOUS
 62
     7
 10
4.2222
 20
8.0989
 30
0
 11
4.5417
 21
8.0989
 31
0
  0
LINE
  8
LAYER1
  6
CONTINUOUS
 62
     7
 10
4.25
 20
8.0712
 30
0
 11
4.5139
 21
8.0712
 31
0
  0
LINE
  8
LAYER1
  6
CONTINUOUS
 62
     7
 10
4.2222
 20
8.0434
 30
0
 11
4.5417
 21
8.0434
 31
0
  0
LINE
  8
LAYER1
  6
CONTINUOUS
 62
     7
 10
4.25
 20
8.0156
 30
0
 11
4.5139
 21
8.0156
 31
0
  0
LINE
  8
LAYER1
  6
CONTINUOUS
 62
     7
 10
4.2222
 20
8.0017
 30
0
 11
4.5417
 21
8.0017
 31
0
  0
LINE
  8
LAYER1
  6
CONTINUOUS
 62
     7
 10
4.25
 20
7.9739
 30
0
 11
4.5139
 21
7.9739
 31
0
  0
LINE
  8
LAYER1
  6
CONTINUOUS
 62
     7
 10
4.2222
 20
7.9462
 30
0
 11
4.5417
 21
7.9462
 31
0
  0
LINE
  8
LAYER1
  6
CONTINUOUS
 62
     7
 10
4.25
 20
7.9184
 30
0
 11
4.5139
 21
7.9184
 31
0
  0
LINE
  8
LAYER1
  6
CONTINUOUS
 62
     7
 10
4.2222
 20
7.9045
 30
0
 11
4.5417
 21
7.9045
 31
0
  0
LINE
  8
LAYER1
  6
CONTINUOUS
 62
     7
 10
4.25
 20
7.8767
 30
0
 11
4.5139
 21
7.8767
 31
0
  0
LINE
  8
LAYER1
  6
CONTINUOUS
 62
     7
 10
4.2222
 20
7.8489
 30
0
 11
4.5417
 21
7.8489
 31
0
  0
LINE
  8
LAYER1
  6
CONTINUOUS
 62
     7
 10
4.25
 20
7.8212
 30
0
 11
4.5139
 21
7.8212
 31
0
  0
LINE
  8
LAYER1
  6
CONTINUOUS
 62
     7
 10
4.2222
 20
7.8073
 30
0
 11
4.5417
 21
7.8073
 31
0
  0
LINE
  8
LAYER1
  6
CONTINUOUS
 62
     7
 10
4.25
 20
7.7795
 30
0
 11
4.5139
 21
7.7795
 31
0
  0
LINE
  8
LAYER1
  6
CONTINUOUS
 62
     7
 10
4.2222
 20
7.7517
 30
0
 11
4.5417
 21
7.7517
 31
0
  0
LINE
  8
LAYER1
  6
CONTINUOUS
 62
     7
 10
4.25
 20
7.7239
 30
0
 11
4.5139
 21
7.7239
 31
0
  0
LINE
  8
LAYER1
  6
CONTINUOUS
 62
     7
 10
4.2222
 20
7.7101
 30
0
 11
4.5417
 21
7.7101
 31
0
  0
LINE
  8
LAYER1
  6
CONTINUOUS
 62
     7
 10
4.2222
 20
7.6823
 30
0
 11
4.5417
 21
7.6823
 31
0
  0
LINE
  8
LAYER1
  6
CONTINUOUS
 62
     7
 10
4.2222
 20
7.6823
 30
0
 11
4.2222
 21
8.4323
 31
0
  0
ENDBLK
  8
LAYER1
  0
BLOCK
  8
LAYER1
  2
Group66
 70
     0
 10
0
 20
0
 30
0
  0
LINE
  8
LAYER1
  6
CONTINUOUS
 62
     7
 10
4.5417
 20
8.4323
 30
0
 11
4.5417
 21
7.6823
 31
0
  0
POLYLINE
  8
LAYER1
  6
CONTINUOUS
 62
     7
 66
     1
 70
     0
 40
0.0039
 41
0.0039
  0
VERTEX
  8
LAYER1
 10
4.3333
 20
7.4184
 30
0
 70
     0
  0
VERTEX
  8
LAYER1
 10
4.3333
 20
7.5712
 30
0
 70
     0
  0
VERTEX
  8
LAYER1
 10
4.4306
 20
7.5712
 30
0
 70
     0
  0
VERTEX
  8
LAYER1
 10
4.4306
 20
7.4184
 30
0
 70
     0
  0
SEQEND
  0
LINE
  8
LAYER1
  6
CONTINUOUS
 62
     7
 10
4.6944
 20
7.5017
 30
0
 11
4.4306
 21
7.5017
 31
0
  0
LINE
  8
LAYER1
  6
CONTINUOUS
 62
     7
 10
4.5417
 20
7.6823
 30
0
 11
4.6944
 21
7.5017
 31
0
  0
LINE
  8
LAYER1
  6
CONTINUOUS
 62
     7
 10
4.3333
 20
7.5017
 30
0
 11
4.0694
 21
7.5017
 31
0
  0
LINE
  8
LAYER1
  6
CONTINUOUS
 62
     7
 10
4.2222
 20
7.6823
 30
0
 11
4.0694
 21
7.5017
 31
0
  0
POLYLINE
  8
LAYER1
  6
CONTINUOUS
 62
     7
 66
     1
 70
     0
 40
0.0039
 41
0.0039
  0
VERTEX
  8
LAYER1
 10
4.3333
 20
7.4184
 30
0
 70
     0
  0
VERTEX
  8
LAYER1
 10
4.3056
 20
7.4184
 30
0
 70
     0
  0
VERTEX
  8
LAYER1
 10
4.2361
 20
7.4323
 30
0
 70
     0
  0
VERTEX
  8
LAYER1
 10
4.1528
 20
7.4601
 30
0
 70
     0
  0
VERTEX
  8
LAYER1
 10
4.0972
 20
7.4878
 30
0
 70
     0
  0
VERTEX
  8
LAYER1
 10
4.0694
 20
7.5017
 30
0
 70
     0
  0
SEQEND
  0
POLYLINE
  8
LAYER1
  6
CONTINUOUS
 62
     7
 66
     1
 70
     0
 40
0.0039
 41
0.0039
  0
VERTEX
  8
LAYER1
 10
4.6944
 20
7.5017
 30
0
 70
     0
  0
VERTEX
  8
LAYER1
 10
4.6667
 20
7.4878
 30
0
 70
     0
  0
VERTEX
  8
LAYER1
 10
4.6111
 20
7.4601
 30
0
 70
     0
  0
VERTEX
  8
LAYER1
 10
4.5278
 20
7.4323
 30
0
 70
     0
  0
VERTEX
  8
LAYER1
 10
4.4583
 20
7.4184
 30
0
 70
     0
  0
VERTEX
  8
LAYER1
 10
4.4306
 20
7.4184
 30
0
 70
     0
  0
SEQEND
  0
ENDBLK
  8
LAYER1
  0
BLOCK
  8
LAYER1
  2
Group67
 70
     0
 10
0
 20
0
 30
0
  0
INSERT
  8
LAYER1
  2
Group65
 10
0
 20
0
 30
0
  0
INSERT
  8
LAYER1
  2
Group66
 10
0
 20
0
 30
0
  0
ENDBLK
  8
LAYER1
  0
BLOCK
  8
LAYER1
  2
Group68
 70
     0
 10
0
 20
0
 30
0
  0
POLYLINE
  8
LAYER1
  6
CONTINUOUS
 62
     7
 66
     1
 70
     0
 40
0.0039
 41
0.0039
  0
VERTEX
  8
LAYER1
 10
4.2222
 20
9.7517
 30
0
 70
     0
  0
VERTEX
  8
LAYER1
 10
4.5417
 20
9.7517
 30
0
 70
     0
  0
VERTEX
  8
LAYER1
 10
4.5139
 20
9.7795
 30
0
 70
     0
  0
SEQEND
  0
LINE
  8
LAYER1
  6
CONTINUOUS
 62
     7
 10
4.2639
 20
9.7795
 30
0
 11
4.5139
 21
9.7795
 31
0
  0
LINE
  8
LAYER1
  6
CONTINUOUS
 62
     7
 10
4.2222
 20
9.7517
 30
0
 11
4.2639
 21
9.7795
 31
0
  0
LINE
  8
LAYER1
  6
CONTINUOUS
 62
     7
 10
4.25
 20
9.7378
 30
0
 11
4.5139
 21
9.7378
 31
0
  0
LINE
  8
LAYER1
  6
CONTINUOUS
 62
     7
 10
4.2222
 20
9.7101
 30
0
 11
4.5417
 21
9.7101
 31
0
  0
LINE
  8
LAYER1
  6
CONTINUOUS
 62
     7
 10
4.25
 20
9.6823
 30
0
 11
4.5139
 21
9.6823
 31
0
  0
LINE
  8
LAYER1
  6
CONTINUOUS
 62
     7
 10
4.2222
 20
9.6545
 30
0
 11
4.5417
 21
9.6545
 31
0
  0
LINE
  8
LAYER1
  6
CONTINUOUS
 62
     7
 10
4.25
 20
9.6406
 30
0
 11
4.5139
 21
9.6406
 31
0
  0
LINE
  8
LAYER1
  6
CONTINUOUS
 62
     7
 10
4.2222
 20
9.6128
 30
0
 11
4.5417
 21
9.6128
 31
0
  0
LINE
  8
LAYER1
  6
CONTINUOUS
 62
     7
 10
4.25
 20
9.5851
 30
0
 11
4.5139
 21
9.5851
 31
0
  0
LINE
  8
LAYER1
  6
CONTINUOUS
 62
     7
 10
4.2222
 20
9.5573
 30
0
 11
4.5417
 21
9.5573
 31
0
  0
LINE
  8
LAYER1
  6
CONTINUOUS
 62
     7
 10
4.25
 20
9.5434
 30
0
 11
4.5139
 21
9.5434
 31
0
  0
LINE
  8
LAYER1
  6
CONTINUOUS
 62
     7
 10
4.2222
 20
9.5156
 30
0
 11
4.5417
 21
9.5156
 31
0
  0
LINE
  8
LAYER1
  6
CONTINUOUS
 62
     7
 10
4.25
 20
9.4878
 30
0
 11
4.5139
 21
9.4878
 31
0
  0
LINE
  8
LAYER1
  6
CONTINUOUS
 62
     7
 10
4.2222
 20
9.4601
 30
0
 11
4.5417
 21
9.4601
 31
0
  0
LINE
  8
LAYER1
  6
CONTINUOUS
 62
     7
 10
4.25
 20
9.4462
 30
0
 11
4.5139
 21
9.4462
 31
0
  0
LINE
  8
LAYER1
  6
CONTINUOUS
 62
     7
 10
4.2222
 20
9.4184
 30
0
 11
4.5417
 21
9.4184
 31
0
  0
LINE
  8
LAYER1
  6
CONTINUOUS
 62
     7
 10
4.25
 20
9.3906
 30
0
 11
4.5139
 21
9.3906
 31
0
  0
LINE
  8
LAYER1
  6
CONTINUOUS
 62
     7
 10
4.2222
 20
9.3628
 30
0
 11
4.5417
 21
9.3628
 31
0
  0
LINE
  8
LAYER1
  6
CONTINUOUS
 62
     7
 10
4.25
 20
9.3489
 30
0
 11
4.5139
 21
9.3489
 31
0
  0
LINE
  8
LAYER1
  6
CONTINUOUS
 62
     7
 10
4.2222
 20
9.3212
 30
0
 11
4.5417
 21
9.3212
 31
0
  0
LINE
  8
LAYER1
  6
CONTINUOUS
 62
     7
 10
4.25
 20
9.2934
 30
0
 11
4.5139
 21
9.2934
 31
0
  0
LINE
  8
LAYER1
  6
CONTINUOUS
 62
     7
 10
4.2222
 20
9.2656
 30
0
 11
4.5417
 21
9.2656
 31
0
  0
LINE
  8
LAYER1
  6
CONTINUOUS
 62
     7
 10
4.25
 20
9.2517
 30
0
 11
4.5139
 21
9.2517
 31
0
  0
LINE
  8
LAYER1
  6
CONTINUOUS
 62
     7
 10
4.2222
 20
9.2239
 30
0
 11
4.5417
 21
9.2239
 31
0
  0
LINE
  8
LAYER1
  6
CONTINUOUS
 62
     7
 10
4.25
 20
9.1962
 30
0
 11
4.5139
 21
9.1962
 31
0
  0
LINE
  8
LAYER1
  6
CONTINUOUS
 62
     7
 10
4.2222
 20
9.1684
 30
0
 11
4.5417
 21
9.1684
 31
0
  0
LINE
  8
LAYER1
  6
CONTINUOUS
 62
     7
 10
4.25
 20
9.1545
 30
0
 11
4.5139
 21
9.1545
 31
0
  0
LINE
  8
LAYER1
  6
CONTINUOUS
 62
     7
 10
4.2222
 20
9.1267
 30
0
 11
4.5417
 21
9.1267
 31
0
  0
LINE
  8
LAYER1
  6
CONTINUOUS
 62
     7
 10
4.25
 20
9.0989
 30
0
 11
4.5139
 21
9.0989
 31
0
  0
LINE
  8
LAYER1
  6
CONTINUOUS
 62
     7
 10
4.2222
 20
9.0712
 30
0
 11
4.5417
 21
9.0712
 31
0
  0
LINE
  8
LAYER1
  6
CONTINUOUS
 62
     7
 10
4.25
 20
9.0573
 30
0
 11
4.5139
 21
9.0573
 31
0
  0
LINE
  8
LAYER1
  6
CONTINUOUS
 62
     7
 10
4.2222
 20
9.0295
 30
0
 11
4.5417
 21
9.0295
 31
0
  0
LINE
  8
LAYER1
  6
CONTINUOUS
 62
     7
 10
4.25
 20
9.0017
 30
0
 11
4.5139
 21
9.0017
 31
0
  0
LINE
  8
LAYER1
  6
CONTINUOUS
 62
     7
 10
4.2222
 20
8.9739
 30
0
 11
4.5417
 21
8.9739
 31
0
  0
LINE
  8
LAYER1
  6
CONTINUOUS
 62
     7
 10
4.25
 20
8.9601
 30
0
 11
4.5139
 21
8.9601
 31
0
  0
LINE
  8
LAYER1
  6
CONTINUOUS
 62
     7
 10
4.2222
 20
8.9323
 30
0
 11
4.5417
 21
8.9323
 31
0
  0
LINE
  8
LAYER1
  6
CONTINUOUS
 62
     7
 10
4.25
 20
8.9045
 30
0
 11
4.5139
 21
8.9045
 31
0
  0
LINE
  8
LAYER1
  6
CONTINUOUS
 62
     7
 10
4.2222
 20
8.8767
 30
0
 11
4.5417
 21
8.8767
 31
0
  0
LINE
  8
LAYER1
  6
CONTINUOUS
 62
     7
 10
4.25
 20
8.8628
 30
0
 11
4.5139
 21
8.8628
 31
0
  0
LINE
  8
LAYER1
  6
CONTINUOUS
 62
     7
 10
4.2222
 20
8.8489
 30
0
 11
4.5417
 21
8.8489
 31
0
  0
LINE
  8
LAYER1
  6
CONTINUOUS
 62
     7
 10
4.2222
 20
8.8489
 30
0
 11
4.2222
 21
9.7517
 31
0
  0
ENDBLK
  8
LAYER1
  0
BLOCK
  8
LAYER1
  2
Group69
 70
     0
 10
0
 20
0
 30
0
  0
LINE
  8
LAYER1
  6
CONTINUOUS
 62
     7
 10
4.5417
 20
8.8489
 30
0
 11
4.5417
 21
9.7517
 31
0
  0
POLYLINE
  8
LAYER1
  6
CONTINUOUS
 62
     7
 66
     1
 70
     0
 40
0.0039
 41
0.0039
  0
VERTEX
  8
LAYER1
 10
4.3333
 20
8.5851
 30
0
 70
     0
  0
VERTEX
  8
LAYER1
 10
4.3333
 20
8.7378
 30
0
 70
     0
  0
VERTEX
  8
LAYER1
 10
4.4306
 20
8.7378
 30
0
 70
     0
  0
VERTEX
  8
LAYER1
 10
4.4306
 20
8.5851
 30
0
 70
     0
  0
SEQEND
  0
LINE
  8
LAYER1
  6
CONTINUOUS
 62
     7
 10
4.6944
 20
8.6684
 30
0
 11
4.4306
 21
8.6684
 31
0
  0
LINE
  8
LAYER1
  6
CONTINUOUS
 62
     7
 10
4.5417
 20
8.8489
 30
0
 11
4.6944
 21
8.6684
 31
0
  0
LINE
  8
LAYER1
  6
CONTINUOUS
 62
     7
 10
4.3333
 20
8.6684
 30
0
 11
4.0694
 21
8.6684
 31
0
  0
LINE
  8
LAYER1
  6
CONTINUOUS
 62
     7
 10
4.2222
 20
8.8489
 30
0
 11
4.0694
 21
8.6684
 31
0
  0
POLYLINE
  8
LAYER1
  6
CONTINUOUS
 62
     7
 66
     1
 70
     0
 40
0.0039
 41
0.0039
  0
VERTEX
  8
LAYER1
 10
4.3333
 20
8.5851
 30
0
 70
     0
  0
VERTEX
  8
LAYER1
 10
4.3056
 20
8.5851
 30
0
 70
     0
  0
VERTEX
  8
LAYER1
 10
4.2361
 20
8.5989
 30
0
 70
     0
  0
VERTEX
  8
LAYER1
 10
4.1528
 20
8.6267
 30
0
 70
     0
  0
VERTEX
  8
LAYER1
 10
4.0972
 20
8.6545
 30
0
 70
     0
  0
VERTEX
  8
LAYER1
 10
4.0694
 20
8.6684
 30
0
 70
     0
  0
SEQEND
  0
POLYLINE
  8
LAYER1
  6
CONTINUOUS
 62
     7
 66
     1
 70
     0
 40
0.0039
 41
0.0039
  0
VERTEX
  8
LAYER1
 10
4.6944
 20
8.6684
 30
0
 70
     0
  0
VERTEX
  8
LAYER1
 10
4.6528
 20
8.6406
 30
0
 70
     0
  0
VERTEX
  8
LAYER1
 10
4.5972
 20
8.6128
 30
0
 70
     0
  0
VERTEX
  8
LAYER1
 10
4.5417
 20
8.5989
 30
0
 70
     0
  0
VERTEX
  8
LAYER1
 10
4.4722
 20
8.5851
 30
0
 70
     0
  0
VERTEX
  8
LAYER1
 10
4.4306
 20
8.5851
 30
0
 70
     0
  0
SEQEND
  0
ENDBLK
  8
LAYER1
  0
BLOCK
  8
LAYER1
  2
Group70
 70
     0
 10
0
 20
0
 30
0
  0
INSERT
  8
LAYER1
  2
Group68
 10
0
 20
0
 30
0
  0
INSERT
  8
LAYER1
  2
Group69
 10
0
 20
0
 30
0
  0
ENDBLK
  8
LAYER1
  0
BLOCK
  8
LAYER1
  2
Group71
 70
     0
 10
0
 20
0
 30
0
  0
LINE
  8
LAYER1
  6
CONTINUOUS
 62
     7
 10
3.5556
 20
5.0712
 30
0
 11
3.7917
 21
5.0712
 31
0
  0
LINE
  8
LAYER1
  6
CONTINUOUS
 62
     7
 10
3.5556
 20
5.3489
 30
0
 11
3.7917
 21
5.3489
 31
0
  0
LINE
  8
LAYER1
  6
CONTINUOUS
 62
     7
 10
3.5694
 20
5.3351
 30
0
 11
3.7639
 21
5.3351
 31
0
  0
LINE
  8
LAYER1
  6
CONTINUOUS
 62
     7
 10
3.5556
 20
5.3073
 30
0
 11
3.7917
 21
5.3073
 31
0
  0
LINE
  8
LAYER1
  6
CONTINUOUS
 62
     7
 10
3.5694
 20
5.2934
 30
0
 11
3.7639
 21
5.2934
 31
0
  0
LINE
  8
LAYER1
  6
CONTINUOUS
 62
     7
 10
3.5556
 20
5.2795
 30
0
 11
3.7917
 21
5.2795
 31
0
  0
LINE
  8
LAYER1
  6
CONTINUOUS
 62
     7
 10
3.5694
 20
5.2517
 30
0
 11
3.7639
 21
5.2517
 31
0
  0
LINE
  8
LAYER1
  6
CONTINUOUS
 62
     7
 10
3.5556
 20
5.2378
 30
0
 11
3.7917
 21
5.2378
 31
0
  0
LINE
  8
LAYER1
  6
CONTINUOUS
 62
     7
 10
3.5694
 20
5.2101
 30
0
 11
3.7639
 21
5.2101
 31
0
  0
LINE
  8
LAYER1
  6
CONTINUOUS
 62
     7
 10
3.5556
 20
5.1962
 30
0
 11
3.7917
 21
5.1962
 31
0
  0
LINE
  8
LAYER1
  6
CONTINUOUS
 62
     7
 10
3.5694
 20
5.1823
 30
0
 11
3.7639
 21
5.1823
 31
0
  0
LINE
  8
LAYER1
  6
CONTINUOUS
 62
     7
 10
3.5556
 20
5.1545
 30
0
 11
3.7917
 21
5.1545
 31
0
  0
LINE
  8
LAYER1
  6
CONTINUOUS
 62
     7
 10
3.5694
 20
5.1406
 30
0
 11
3.7639
 21
5.1406
 31
0
  0
LINE
  8
LAYER1
  6
CONTINUOUS
 62
     7
 10
3.5556
 20
5.1128
 30
0
 11
3.7917
 21
5.1128
 31
0
  0
LINE
  8
LAYER1
  6
CONTINUOUS
 62
     7
 10
3.5694
 20
5.0989
 30
0
 11
3.7639
 21
5.0989
 31
0
  0
LINE
  8
LAYER1
  6
CONTINUOUS
 62
     7
 10
3.5694
 20
5.3767
 30
0
 11
3.7639
 21
5.3767
 31
0
  0
LINE
  8
LAYER1
  6
CONTINUOUS
 62
     7
 10
3.5556
 20
5.3489
 30
0
 11
3.5694
 21
5.3767
 31
0
  0
LINE
  8
LAYER1
  6
CONTINUOUS
 62
     7
 10
3.7917
 20
5.3489
 30
0
 11
3.7639
 21
5.3767
 31
0
  0
LINE
  8
LAYER1
  6
CONTINUOUS
 62
     7
 10
3.5556
 20
5.0434
 30
0
 11
3.7917
 21
5.0434
 31
0
  0
LINE
  8
LAYER1
  6
CONTINUOUS
 62
     7
 10
3.5694
 20
5.0573
 30
0
 11
3.7639
 21
5.0573
 31
0
  0
LINE
  8
LAYER1
  6
CONTINUOUS
 62
     7
 10
3.5556
 20
5.0017
 30
0
 11
3.7917
 21
5.0017
 31
0
  0
LINE
  8
LAYER1
  6
CONTINUOUS
 62
     7
 10
3.5694
 20
5.0156
 30
0
 11
3.7639
 21
5.0156
 31
0
  0
LINE
  8
LAYER1
  6
CONTINUOUS
 62
     7
 10
3.5556
 20
4.9045
 30
0
 11
3.7917
 21
4.9045
 31
0
  0
LINE
  8
LAYER1
  6
CONTINUOUS
 62
     7
 10
3.5556
 20
4.9601
 30
0
 11
3.7917
 21
4.9601
 31
0
  0
LINE
  8
LAYER1
  6
CONTINUOUS
 62
     7
 10
3.5694
 20
4.9739
 30
0
 11
3.7639
 21
4.9739
 31
0
  0
LINE
  8
LAYER1
  6
CONTINUOUS
 62
     7
 10
3.5556
 20
4.9184
 30
0
 11
3.7917
 21
4.9184
 31
0
  0
LINE
  8
LAYER1
  6
CONTINUOUS
 62
     7
 10
3.5694
 20
4.9462
 30
0
 11
3.7639
 21
4.9462
 31
0
  0
LINE
  8
LAYER1
  6
CONTINUOUS
 62
     7
 10
3.5556
 20
4.9045
 30
0
 11
3.5556
 21
5.3489
 31
0
  0
ENDBLK
  8
LAYER1
  0
BLOCK
  8
LAYER1
  2
Group72
 70
     0
 10
0
 20
0
 30
0
  0
LINE
  8
LAYER1
  6
CONTINUOUS
 62
     7
 10
3.7917
 20
4.9045
 30
0
 11
3.9167
 21
4.7517
 31
0
  0
ENDBLK
  8
LAYER1
  0
BLOCK
  8
LAYER1
  2
Group73
 70
     0
 10
0
 20
0
 30
0
  0
LINE
  8
LAYER1
  6
CONTINUOUS
 62
     7
 10
3.7917
 20
4.9045
 30
0
 11
3.7917
 21
5.3489
 31
0
  0
LINE
  8
LAYER1
  6
CONTINUOUS
 62
     7
 10
3.5556
 20
4.9045
 30
0
 11
3.4167
 21
4.7517
 31
0
  0
INSERT
  8
LAYER1
  2
Group72
 10
0
 20
0
 30
0
  0
POLYLINE
  8
LAYER1
  6
CONTINUOUS
 62
     7
 66
     1
 70
     0
 40
0.0039
 41
0.0039
  0
VERTEX
  8
LAYER1
 10
3.625
 20
4.6684
 30
0
 70
     0
  0
VERTEX
  8
LAYER1
 10
3.625
 20
4.7934
 30
0
 70
     0
  0
VERTEX
  8
LAYER1
 10
3.7083
 20
4.7934
 30
0
 70
     0
  0
VERTEX
  8
LAYER1
 10
3.7083
 20
4.6684
 30
0
 70
     0
  0
SEQEND
  0
LINE
  8
LAYER1
  6
CONTINUOUS
 62
     7
 10
3.9167
 20
4.7517
 30
0
 11
3.7083
 21
4.7517
 31
0
  0
LINE
  8
LAYER1
  6
CONTINUOUS
 62
     7
 10
3.625
 20
4.7517
 30
0
 11
3.4167
 21
4.7517
 31
0
  0
POLYLINE
  8
LAYER1
  6
CONTINUOUS
 62
     7
 66
     1
 70
     0
 40
0.0039
 41
0.0039
  0
VERTEX
  8
LAYER1
 10
3.625
 20
4.6684
 30
0
 70
     0
  0
VERTEX
  8
LAYER1
 10
3.5972
 20
4.6684
 30
0
 70
     0
  0
VERTEX
  8
LAYER1
 10
3.5556
 20
4.6823
 30
0
 70
     0
  0
VERTEX
  8
LAYER1
 10
3.4861
 20
4.7101
 30
0
 70
     0
  0
VERTEX
  8
LAYER1
 10
3.4306
 20
4.7378
 30
0
 70
     0
  0
VERTEX
  8
LAYER1
 10
3.4167
 20
4.7517
 30
0
 70
     0
  0
SEQEND
  0
POLYLINE
  8
LAYER1
  6
CONTINUOUS
 62
     7
 66
     1
 70
     0
 40
0.0039
 41
0.0039
  0
VERTEX
  8
LAYER1
 10
3.9167
 20
4.7517
 30
0
 70
     0
  0
VERTEX
  8
LAYER1
 10
3.9028
 20
4.7378
 30
0
 70
     0
  0
VERTEX
  8
LAYER1
 10
3.8472
 20
4.7101
 30
0
 70
     0
  0
VERTEX
  8
LAYER1
 10
3.7778
 20
4.6823
 30
0
 70
     0
  0
VERTEX
  8
LAYER1
 10
3.7361
 20
4.6684
 30
0
 70
     0
  0
VERTEX
  8
LAYER1
 10
3.7083
 20
4.6684
 30
0
 70
     0
  0
SEQEND
  0
ENDBLK
  8
LAYER1
  0
BLOCK
  8
LAYER1
  2
Group74
 70
     0
 10
0
 20
0
 30
0
  0
INSERT
  8
LAYER1
  2
Group71
 10
0
 20
0
 30
0
  0
INSERT
  8
LAYER1
  2
Group73
 10
0
 20
0
 30
0
  0
ENDBLK
  8
LAYER1
  0
BLOCK
  8
LAYER1
  2
Group75
 70
     0
 10
0
 20
0
 30
0
  0
LINE
  8
LAYER1
  6
CONTINUOUS
 62
     7
 10
3.5556
 20
5.9601
 30
0
 11
3.7917
 21
5.9601
 31
0
  0
LINE
  8
LAYER1
  6
CONTINUOUS
 62
     7
 10
3.5556
 20
6.2378
 30
0
 11
3.7917
 21
6.2378
 31
0
  0
LINE
  8
LAYER1
  6
CONTINUOUS
 62
     7
 10
3.5694
 20
6.2101
 30
0
 11
3.7639
 21
6.2101
 31
0
  0
LINE
  8
LAYER1
  6
CONTINUOUS
 62
     7
 10
3.5556
 20
6.1962
 30
0
 11
3.7917
 21
6.1962
 31
0
  0
LINE
  8
LAYER1
  6
CONTINUOUS
 62
     7
 10
3.5694
 20
6.1684
 30
0
 11
3.7639
 21
6.1684
 31
0
  0
LINE
  8
LAYER1
  6
CONTINUOUS
 62
     7
 10
3.5556
 20
6.1545
 30
0
 11
3.7917
 21
6.1545
 31
0
  0
LINE
  8
LAYER1
  6
CONTINUOUS
 62
     7
 10
3.5694
 20
6.1406
 30
0
 11
3.7639
 21
6.1406
 31
0
  0
LINE
  8
LAYER1
  6
CONTINUOUS
 62
     7
 10
3.5556
 20
6.1128
 30
0
 11
3.7917
 21
6.1128
 31
0
  0
LINE
  8
LAYER1
  6
CONTINUOUS
 62
     7
 10
3.5694
 20
6.0989
 30
0
 11
3.7639
 21
6.0989
 31
0
  0
LINE
  8
LAYER1
  6
CONTINUOUS
 62
     7
 10
3.5556
 20
6.0712
 30
0
 11
3.7917
 21
6.0712
 31
0
  0
LINE
  8
LAYER1
  6
CONTINUOUS
 62
     7
 10
3.5694
 20
6.0573
 30
0
 11
3.7639
 21
6.0573
 31
0
  0
LINE
  8
LAYER1
  6
CONTINUOUS
 62
     7
 10
3.5556
 20
6.0434
 30
0
 11
3.7917
 21
6.0434
 31
0
  0
LINE
  8
LAYER1
  6
CONTINUOUS
 62
     7
 10
3.5694
 20
6.0156
 30
0
 11
3.7639
 21
6.0156
 31
0
  0
LINE
  8
LAYER1
  6
CONTINUOUS
 62
     7
 10
3.5556
 20
6.0017
 30
0
 11
3.7917
 21
6.0017
 31
0
  0
LINE
  8
LAYER1
  6
CONTINUOUS
 62
     7
 10
3.5694
 20
5.9739
 30
0
 11
3.7639
 21
5.9739
 31
0
  0
LINE
  8
LAYER1
  6
CONTINUOUS
 62
     7
 10
3.5694
 20
6.2517
 30
0
 11
3.7639
 21
6.2517
 31
0
  0
LINE
  8
LAYER1
  6
CONTINUOUS
 62
     7
 10
3.5556
 20
6.2378
 30
0
 11
3.5694
 21
6.2517
 31
0
  0
LINE
  8
LAYER1
  6
CONTINUOUS
 62
     7
 10
3.7917
 20
6.2378
 30
0
 11
3.7639
 21
6.2517
 31
0
  0
LINE
  8
LAYER1
  6
CONTINUOUS
 62
     7
 10
3.5556
 20
5.9184
 30
0
 11
3.7917
 21
5.9184
 31
0
  0
LINE
  8
LAYER1
  6
CONTINUOUS
 62
     7
 10
3.5694
 20
5.9323
 30
0
 11
3.7639
 21
5.9323
 31
0
  0
LINE
  8
LAYER1
  6
CONTINUOUS
 62
     7
 10
3.5556
 20
5.8767
 30
0
 11
3.7917
 21
5.8767
 31
0
  0
LINE
  8
LAYER1
  6
CONTINUOUS
 62
     7
 10
3.5694
 20
5.9045
 30
0
 11
3.7639
 21
5.9045
 31
0
  0
LINE
  8
LAYER1
  6
CONTINUOUS
 62
     7
 10
3.5556
 20
5.8351
 30
0
 11
3.7917
 21
5.8351
 31
0
  0
LINE
  8
LAYER1
  6
CONTINUOUS
 62
     7
 10
3.5694
 20
5.8628
 30
0
 11
3.7639
 21
5.8628
 31
0
  0
LINE
  8
LAYER1
  6
CONTINUOUS
 62
     7
 10
3.5556
 20
5.8073
 30
0
 11
3.7917
 21
5.8073
 31
0
  0
LINE
  8
LAYER1
  6
CONTINUOUS
 62
     7
 10
3.5694
 20
5.8212
 30
0
 11
3.7639
 21
5.8212
 31
0
  0
LINE
  8
LAYER1
  6
CONTINUOUS
 62
     7
 10
3.5556
 20
5.7656
 30
0
 11
3.7917
 21
5.7656
 31
0
  0
LINE
  8
LAYER1
  6
CONTINUOUS
 62
     7
 10
3.5694
 20
5.7795
 30
0
 11
3.7639
 21
5.7795
 31
0
  0
LINE
  8
LAYER1
  6
CONTINUOUS
 62
     7
 10
3.5556
 20
5.7239
 30
0
 11
3.7917
 21
5.7239
 31
0
  0
LINE
  8
LAYER1
  6
CONTINUOUS
 62
     7
 10
3.5694
 20
5.7378
 30
0
 11
3.7639
 21
5.7378
 31
0
  0
LINE
  8
LAYER1
  6
CONTINUOUS
 62
     7
 10
3.5556
 20
5.6962
 30
0
 11
3.7917
 21
5.6962
 31
0
  0
LINE
  8
LAYER1
  6
CONTINUOUS
 62
     7
 10
3.5556
 20
5.6962
 30
0
 11
3.5556
 21
6.2378
 31
0
  0
ENDBLK
  8
LAYER1
  0
BLOCK
  8
LAYER1
  2
Group76
 70
     0
 10
0
 20
0
 30
0
  0
LINE
  8
LAYER1
  6
CONTINUOUS
 62
     7
 10
3.7917
 20
5.6962
 30
0
 11
3.9167
 21
5.5434
 31
0
  0
ENDBLK
  8
LAYER1
  0
BLOCK
  8
LAYER1
  2
Group77
 70
     0
 10
0
 20
0
 30
0
  0
LINE
  8
LAYER1
  6
CONTINUOUS
 62
     7
 10
3.7917
 20
5.6962
 30
0
 11
3.7917
 21
6.2378
 31
0
  0
LINE
  8
LAYER1
  6
CONTINUOUS
 62
     7
 10
3.5556
 20
5.6962
 30
0
 11
3.4167
 21
5.5434
 31
0
  0
INSERT
  8
LAYER1
  2
Group76
 10
0
 20
0
 30
0
  0
POLYLINE
  8
LAYER1
  6
CONTINUOUS
 62
     7
 66
     1
 70
     0
 40
0.0039
 41
0.0039
  0
VERTEX
  8
LAYER1
 10
3.625
 20
5.4739
 30
0
 70
     0
  0
VERTEX
  8
LAYER1
 10
3.625
 20
5.5989
 30
0
 70
     0
  0
VERTEX
  8
LAYER1
 10
3.7083
 20
5.5989
 30
0
 70
     0
  0
VERTEX
  8
LAYER1
 10
3.7083
 20
5.4739
 30
0
 70
     0
  0
SEQEND
  0
LINE
  8
LAYER1
  6
CONTINUOUS
 62
     7
 10
3.9167
 20
5.5434
 30
0
 11
3.7083
 21
5.5434
 31
0
  0
LINE
  8
LAYER1
  6
CONTINUOUS
 62
     7
 10
3.625
 20
5.5434
 30
0
 11
3.4167
 21
5.5434
 31
0
  0
POLYLINE
  8
LAYER1
  6
CONTINUOUS
 62
     7
 66
     1
 70
     0
 40
0.0039
 41
0.0039
  0
VERTEX
  8
LAYER1
 10
3.625
 20
5.4739
 30
0
 70
     0
  0
VERTEX
  8
LAYER1
 10
3.5972
 20
5.4739
 30
0
 70
     0
  0
VERTEX
  8
LAYER1
 10
3.5556
 20
5.4878
 30
0
 70
     0
  0
VERTEX
  8
LAYER1
 10
3.5
 20
5.5017
 30
0
 70
     0
  0
VERTEX
  8
LAYER1
 10
3.4444
 20
5.5295
 30
0
 70
     0
  0
VERTEX
  8
LAYER1
 10
3.4167
 20
5.5434
 30
0
 70
     0
  0
SEQEND
  0
POLYLINE
  8
LAYER1
  6
CONTINUOUS
 62
     7
 66
     1
 70
     0
 40
0.0039
 41
0.0039
  0
VERTEX
  8
LAYER1
 10
3.9167
 20
5.5434
 30
0
 70
     0
  0
VERTEX
  8
LAYER1
 10
3.9028
 20
5.5295
 30
0
 70
     0
  0
VERTEX
  8
LAYER1
 10
3.8472
 20
5.5017
 30
0
 70
     0
  0
VERTEX
  8
LAYER1
 10
3.7917
 20
5.4878
 30
0
 70
     0
  0
VERTEX
  8
LAYER1
 10
3.7361
 20
5.4739
 30
0
 70
     0
  0
VERTEX
  8
LAYER1
 10
3.7083
 20
5.4739
 30
0
 70
     0
  0
SEQEND
  0
ENDBLK
  8
LAYER1
  0
BLOCK
  8
LAYER1
  2
Group78
 70
     0
 10
0
 20
0
 30
0
  0
INSERT
  8
LAYER1
  2
Group75
 10
0
 20
0
 30
0
  0
INSERT
  8
LAYER1
  2
Group77
 10
0
 20
0
 30
0
  0
ENDBLK
  8
LAYER1
  0
BLOCK
  8
LAYER1
  2
Group79
 70
     0
 10
0
 20
0
 30
0
  0
LINE
  8
LAYER1
  6
CONTINUOUS
 62
     7
 10
3.5556
 20
7.0017
 30
0
 11
3.7917
 21
7.0017
 31
0
  0
LINE
  8
LAYER1
  6
CONTINUOUS
 62
     7
 10
3.5556
 20
7.2795
 30
0
 11
3.7917
 21
7.2795
 31
0
  0
LINE
  8
LAYER1
  6
CONTINUOUS
 62
     7
 10
3.5694
 20
7.2656
 30
0
 11
3.7639
 21
7.2656
 31
0
  0
LINE
  8
LAYER1
  6
CONTINUOUS
 62
     7
 10
3.5556
 20
7.2378
 30
0
 11
3.7917
 21
7.2378
 31
0
  0
LINE
  8
LAYER1
  6
CONTINUOUS
 62
     7
 10
3.5694
 20
7.2239
 30
0
 11
3.7639
 21
7.2239
 31
0
  0
LINE
  8
LAYER1
  6
CONTINUOUS
 62
     7
 10
3.5556
 20
7.2101
 30
0
 11
3.7917
 21
7.2101
 31
0
  0
LINE
  8
LAYER1
  6
CONTINUOUS
 62
     7
 10
3.5694
 20
7.1823
 30
0
 11
3.7639
 21
7.1823
 31
0
  0
LINE
  8
LAYER1
  6
CONTINUOUS
 62
     7
 10
3.5556
 20
7.1684
 30
0
 11
3.7917
 21
7.1684
 31
0
  0
LINE
  8
LAYER1
  6
CONTINUOUS
 62
     7
 10
3.5694
 20
7.1406
 30
0
 11
3.7639
 21
7.1406
 31
0
  0
LINE
  8
LAYER1
  6
CONTINUOUS
 62
     7
 10
3.5556
 20
7.1267
 30
0
 11
3.7917
 21
7.1267
 31
0
  0
LINE
  8
LAYER1
  6
CONTINUOUS
 62
     7
 10
3.5694
 20
7.0989
 30
0
 11
3.7639
 21
7.0989
 31
0
  0
LINE
  8
LAYER1
  6
CONTINUOUS
 62
     7
 10
3.5556
 20
7.0851
 30
0
 11
3.7917
 21
7.0851
 31
0
  0
LINE
  8
LAYER1
  6
CONTINUOUS
 62
     7
 10
3.5694
 20
7.0712
 30
0
 11
3.7639
 21
7.0712
 31
0
  0
LINE
  8
LAYER1
  6
CONTINUOUS
 62
     7
 10
3.5556
 20
7.0434
 30
0
 11
3.7917
 21
7.0434
 31
0
  0
LINE
  8
LAYER1
  6
CONTINUOUS
 62
     7
 10
3.5694
 20
7.0295
 30
0
 11
3.7639
 21
7.0295
 31
0
  0
LINE
  8
LAYER1
  6
CONTINUOUS
 62
     7
 10
3.5694
 20
7.3073
 30
0
 11
3.7639
 21
7.3073
 31
0
  0
LINE
  8
LAYER1
  6
CONTINUOUS
 62
     7
 10
3.5556
 20
7.2795
 30
0
 11
3.5694
 21
7.3073
 31
0
  0
LINE
  8
LAYER1
  6
CONTINUOUS
 62
     7
 10
3.7917
 20
7.2795
 30
0
 11
3.7639
 21
7.3073
 31
0
  0
LINE
  8
LAYER1
  6
CONTINUOUS
 62
     7
 10
3.5556
 20
6.9739
 30
0
 11
3.7917
 21
6.9739
 31
0
  0
LINE
  8
LAYER1
  6
CONTINUOUS
 62
     7
 10
3.5694
 20
6.9878
 30
0
 11
3.7639
 21
6.9878
 31
0
  0
LINE
  8
LAYER1
  6
CONTINUOUS
 62
     7
 10
3.5556
 20
6.9323
 30
0
 11
3.7917
 21
6.9323
 31
0
  0
LINE
  8
LAYER1
  6
CONTINUOUS
 62
     7
 10
3.5694
 20
6.9462
 30
0
 11
3.7639
 21
6.9462
 31
0
  0
LINE
  8
LAYER1
  6
CONTINUOUS
 62
     7
 10
3.5556
 20
6.8906
 30
0
 11
3.7917
 21
6.8906
 31
0
  0
LINE
  8
LAYER1
  6
CONTINUOUS
 62
     7
 10
3.5694
 20
6.9045
 30
0
 11
3.7639
 21
6.9045
 31
0
  0
LINE
  8
LAYER1
  6
CONTINUOUS
 62
     7
 10
3.5556
 20
6.8489
 30
0
 11
3.7917
 21
6.8489
 31
0
  0
LINE
  8
LAYER1
  6
CONTINUOUS
 62
     7
 10
3.5694
 20
6.8628
 30
0
 11
3.7639
 21
6.8628
 31
0
  0
LINE
  8
LAYER1
  6
CONTINUOUS
 62
     7
 10
3.5556
 20
6.8073
 30
0
 11
3.7917
 21
6.8073
 31
0
  0
LINE
  8
LAYER1
  6
CONTINUOUS
 62
     7
 10
3.5694
 20
6.8351
 30
0
 11
3.7639
 21
6.8351
 31
0
  0
LINE
  8
LAYER1
  6
CONTINUOUS
 62
     7
 10
3.5556
 20
6.7656
 30
0
 11
3.7917
 21
6.7656
 31
0
  0
LINE
  8
LAYER1
  6
CONTINUOUS
 62
     7
 10
3.5694
 20
6.7934
 30
0
 11
3.7639
 21
6.7934
 31
0
  0
LINE
  8
LAYER1
  6
CONTINUOUS
 62
     7
 10
3.5556
 20
6.6684
 30
0
 11
3.7917
 21
6.6684
 31
0
  0
LINE
  8
LAYER1
  6
CONTINUOUS
 62
     7
 10
3.5556
 20
6.7239
 30
0
 11
3.7917
 21
6.7239
 31
0
  0
LINE
  8
LAYER1
  6
CONTINUOUS
 62
     7
 10
3.5694
 20
6.7517
 30
0
 11
3.7639
 21
6.7517
 31
0
  0
LINE
  8
LAYER1
  6
CONTINUOUS
 62
     7
 10
3.5556
 20
6.6962
 30
0
 11
3.7917
 21
6.6962
 31
0
  0
LINE
  8
LAYER1
  6
CONTINUOUS
 62
     7
 10
3.5694
 20
6.7101
 30
0
 11
3.7639
 21
6.7101
 31
0
  0
LINE
  8
LAYER1
  6
CONTINUOUS
 62
     7
 10
3.5556
 20
6.6684
 30
0
 11
3.5556
 21
7.2795
 31
0
  0
ENDBLK
  8
LAYER1
  0
BLOCK
  8
LAYER1
  2
Group80
 70
     0
 10
0
 20
0
 30
0
  0
LINE
  8
LAYER1
  6
CONTINUOUS
 62
     7
 10
3.7917
 20
6.6684
 30
0
 11
3.9167
 21
6.5156
 31
0
  0
ENDBLK
  8
LAYER1
  0
BLOCK
  8
LAYER1
  2
Group81
 70
     0
 10
0
 20
0
 30
0
  0
LINE
  8
LAYER1
  6
CONTINUOUS
 62
     7
 10
3.7917
 20
6.6684
 30
0
 11
3.7917
 21
7.2795
 31
0
  0
LINE
  8
LAYER1
  6
CONTINUOUS
 62
     7
 10
3.5556
 20
6.6684
 30
0
 11
3.4167
 21
6.5156
 31
0
  0
INSERT
  8
LAYER1
  2
Group80
 10
0
 20
0
 30
0
  0
POLYLINE
  8
LAYER1
  6
CONTINUOUS
 62
     7
 66
     1
 70
     0
 40
0.0039
 41
0.0039
  0
VERTEX
  8
LAYER1
 10
3.625
 20
6.4462
 30
0
 70
     0
  0
VERTEX
  8
LAYER1
 10
3.625
 20
6.5573
 30
0
 70
     0
  0
VERTEX
  8
LAYER1
 10
3.7083
 20
6.5573
 30
0
 70
     0
  0
VERTEX
  8
LAYER1
 10
3.7083
 20
6.4462
 30
0
 70
     0
  0
SEQEND
  0
LINE
  8
LAYER1
  6
CONTINUOUS
 62
     7
 10
3.9167
 20
6.5156
 30
0
 11
3.7083
 21
6.5156
 31
0
  0
LINE
  8
LAYER1
  6
CONTINUOUS
 62
     7
 10
3.625
 20
6.5156
 30
0
 11
3.4167
 21
6.5156
 31
0
  0
POLYLINE
  8
LAYER1
  6
CONTINUOUS
 62
     7
 66
     1
 70
     0
 40
0.0039
 41
0.0039
  0
VERTEX
  8
LAYER1
 10
3.625
 20
6.4462
 30
0
 70
     0
  0
VERTEX
  8
LAYER1
 10
3.5972
 20
6.4462
 30
0
 70
     0
  0
VERTEX
  8
LAYER1
 10
3.5417
 20
6.4601
 30
0
 70
     0
  0
VERTEX
  8
LAYER1
 10
3.4861
 20
6.4739
 30
0
 70
     0
  0
VERTEX
  8
LAYER1
 10
3.4306
 20
6.5017
 30
0
 70
     0
  0
VERTEX
  8
LAYER1
 10
3.4167
 20
6.5156
 30
0
 70
     0
  0
SEQEND
  0
POLYLINE
  8
LAYER1
  6
CONTINUOUS
 62
     7
 66
     1
 70
     0
 40
0.0039
 41
0.0039
  0
VERTEX
  8
LAYER1
 10
3.9167
 20
6.5156
 30
0
 70
     0
  0
VERTEX
  8
LAYER1
 10
3.9028
 20
6.5017
 30
0
 70
     0
  0
VERTEX
  8
LAYER1
 10
3.8472
 20
6.4739
 30
0
 70
     0
  0
VERTEX
  8
LAYER1
 10
3.7917
 20
6.4601
 30
0
 70
     0
  0
VERTEX
  8
LAYER1
 10
3.7361
 20
6.4462
 30
0
 70
     0
  0
VERTEX
  8
LAYER1
 10
3.7083
 20
6.4462
 30
0
 70
     0
  0
SEQEND
  0
ENDBLK
  8
LAYER1
  0
BLOCK
  8
LAYER1
  2
Group82
 70
     0
 10
0
 20
0
 30
0
  0
INSERT
  8
LAYER1
  2
Group79
 10
0
 20
0
 30
0
  0
INSERT
  8
LAYER1
  2
Group81
 10
0
 20
0
 30
0
  0
ENDBLK
  8
LAYER1
  0
BLOCK
  8
LAYER1
  2
Group83
 70
     0
 10
0
 20
0
 30
0
  0
LINE
  8
LAYER1
  6
CONTINUOUS
 62
     7
 10
3.5556
 20
8.1545
 30
0
 11
3.7917
 21
8.1545
 31
0
  0
LINE
  8
LAYER1
  6
CONTINUOUS
 62
     7
 10
3.5556
 20
8.4323
 30
0
 11
3.7917
 21
8.4323
 31
0
  0
LINE
  8
LAYER1
  6
CONTINUOUS
 62
     7
 10
3.5694
 20
8.4045
 30
0
 11
3.7639
 21
8.4045
 31
0
  0
LINE
  8
LAYER1
  6
CONTINUOUS
 62
     7
 10
3.5556
 20
8.3906
 30
0
 11
3.7917
 21
8.3906
 31
0
  0
LINE
  8
LAYER1
  6
CONTINUOUS
 62
     7
 10
3.5694
 20
8.3628
 30
0
 11
3.7639
 21
8.3628
 31
0
  0
LINE
  8
LAYER1
  6
CONTINUOUS
 62
     7
 10
3.5556
 20
8.3489
 30
0
 11
3.7917
 21
8.3489
 31
0
  0
LINE
  8
LAYER1
  6
CONTINUOUS
 62
     7
 10
3.5694
 20
8.3351
 30
0
 11
3.7639
 21
8.3351
 31
0
  0
LINE
  8
LAYER1
  6
CONTINUOUS
 62
     7
 10
3.5556
 20
8.3073
 30
0
 11
3.7917
 21
8.3073
 31
0
  0
LINE
  8
LAYER1
  6
CONTINUOUS
 62
     7
 10
3.5694
 20
8.2934
 30
0
 11
3.7639
 21
8.2934
 31
0
  0
LINE
  8
LAYER1
  6
CONTINUOUS
 62
     7
 10
3.5556
 20
8.2656
 30
0
 11
3.7917
 21
8.2656
 31
0
  0
LINE
  8
LAYER1
  6
CONTINUOUS
 62
     7
 10
3.5694
 20
8.2517
 30
0
 11
3.7639
 21
8.2517
 31
0
  0
LINE
  8
LAYER1
  6
CONTINUOUS
 62
     7
 10
3.5556
 20
8.2239
 30
0
 11
3.7917
 21
8.2239
 31
0
  0
LINE
  8
LAYER1
  6
CONTINUOUS
 62
     7
 10
3.5694
 20
8.2101
 30
0
 11
3.7639
 21
8.2101
 31
0
  0
LINE
  8
LAYER1
  6
CONTINUOUS
 62
     7
 10
3.5556
 20
8.1962
 30
0
 11
3.7917
 21
8.1962
 31
0
  0
LINE
  8
LAYER1
  6
CONTINUOUS
 62
     7
 10
3.5694
 20
8.1684
 30
0
 11
3.7639
 21
8.1684
 31
0
  0
LINE
  8
LAYER1
  6
CONTINUOUS
 62
     7
 10
3.5694
 20
8.4462
 30
0
 11
3.7639
 21
8.4462
 31
0
  0
LINE
  8
LAYER1
  6
CONTINUOUS
 62
     7
 10
3.5556
 20
8.4323
 30
0
 11
3.5694
 21
8.4462
 31
0
  0
LINE
  8
LAYER1
  6
CONTINUOUS
 62
     7
 10
3.7917
 20
8.4323
 30
0
 11
3.7639
 21
8.4462
 31
0
  0
LINE
  8
LAYER1
  6
CONTINUOUS
 62
     7
 10
3.5556
 20
8.1128
 30
0
 11
3.7917
 21
8.1128
 31
0
  0
LINE
  8
LAYER1
  6
CONTINUOUS
 62
     7
 10
3.5694
 20
8.1267
 30
0
 11
3.7639
 21
8.1267
 31
0
  0
LINE
  8
LAYER1
  6
CONTINUOUS
 62
     7
 10
3.5556
 20
8.0712
 30
0
 11
3.7917
 21
8.0712
 31
0
  0
LINE
  8
LAYER1
  6
CONTINUOUS
 62
     7
 10
3.5694
 20
8.0989
 30
0
 11
3.7639
 21
8.0989
 31
0
  0
LINE
  8
LAYER1
  6
CONTINUOUS
 62
     7
 10
3.5556
 20
8.0295
 30
0
 11
3.7917
 21
8.0295
 31
0
  0
LINE
  8
LAYER1
  6
CONTINUOUS
 62
     7
 10
3.5694
 20
8.0573
 30
0
 11
3.7639
 21
8.0573
 31
0
  0
LINE
  8
LAYER1
  6
CONTINUOUS
 62
     7
 10
3.5556
 20
7.9878
 30
0
 11
3.7917
 21
7.9878
 31
0
  0
LINE
  8
LAYER1
  6
CONTINUOUS
 62
     7
 10
3.5694
 20
8.0156
 30
0
 11
3.7639
 21
8.0156
 31
0
  0
LINE
  8
LAYER1
  6
CONTINUOUS
 62
     7
 10
3.5556
 20
7.9601
 30
0
 11
3.7917
 21
7.9601
 31
0
  0
LINE
  8
LAYER1
  6
CONTINUOUS
 62
     7
 10
3.5694
 20
7.9739
 30
0
 11
3.7639
 21
7.9739
 31
0
  0
LINE
  8
LAYER1
  6
CONTINUOUS
 62
     7
 10
3.5556
 20
7.9184
 30
0
 11
3.7917
 21
7.9184
 31
0
  0
LINE
  8
LAYER1
  6
CONTINUOUS
 62
     7
 10
3.5694
 20
7.9323
 30
0
 11
3.7639
 21
7.9323
 31
0
  0
LINE
  8
LAYER1
  6
CONTINUOUS
 62
     7
 10
3.5556
 20
7.8767
 30
0
 11
3.7917
 21
7.8767
 31
0
  0
LINE
  8
LAYER1
  6
CONTINUOUS
 62
     7
 10
3.5694
 20
7.8906
 30
0
 11
3.7639
 21
7.8906
 31
0
  0
LINE
  8
LAYER1
  6
CONTINUOUS
 62
     7
 10
3.5556
 20
7.8351
 30
0
 11
3.7917
 21
7.8351
 31
0
  0
LINE
  8
LAYER1
  6
CONTINUOUS
 62
     7
 10
3.5694
 20
7.8628
 30
0
 11
3.7639
 21
7.8628
 31
0
  0
LINE
  8
LAYER1
  6
CONTINUOUS
 62
     7
 10
3.5556
 20
7.6545
 30
0
 11
3.7917
 21
7.6545
 31
0
  0
LINE
  8
LAYER1
  6
CONTINUOUS
 62
     7
 10
3.5556
 20
7.7934
 30
0
 11
3.7917
 21
7.7934
 31
0
  0
LINE
  8
LAYER1
  6
CONTINUOUS
 62
     7
 10
3.5694
 20
7.8212
 30
0
 11
3.7639
 21
7.8212
 31
0
  0
LINE
  8
LAYER1
  6
CONTINUOUS
 62
     7
 10
3.5556
 20
7.7517
 30
0
 11
3.7917
 21
7.7517
 31
0
  0
LINE
  8
LAYER1
  6
CONTINUOUS
 62
     7
 10
3.5694
 20
7.7795
 30
0
 11
3.7639
 21
7.7795
 31
0
  0
LINE
  8
LAYER1
  6
CONTINUOUS
 62
     7
 10
3.5556
 20
7.7239
 30
0
 11
3.7917
 21
7.7239
 31
0
  0
LINE
  8
LAYER1
  6
CONTINUOUS
 62
     7
 10
3.5694
 20
7.7378
 30
0
 11
3.7639
 21
7.7378
 31
0
  0
LINE
  8
LAYER1
  6
CONTINUOUS
 62
     7
 10
3.5556
 20
7.6823
 30
0
 11
3.7917
 21
7.6823
 31
0
  0
LINE
  8
LAYER1
  6
CONTINUOUS
 62
     7
 10
3.5694
 20
7.6962
 30
0
 11
3.7639
 21
7.6962
 31
0
  0
LINE
  8
LAYER1
  6
CONTINUOUS
 62
     7
 10
3.5556
 20
7.6545
 30
0
 11
3.5556
 21
8.4323
 31
0
  0
ENDBLK
  8
LAYER1
  0
BLOCK
  8
LAYER1
  2
Group84
 70
     0
 10
0
 20
0
 30
0
  0
LINE
  8
LAYER1
  6
CONTINUOUS
 62
     7
 10
3.7917
 20
7.6545
 30
0
 11
3.9167
 21
7.5017
 31
0
  0
ENDBLK
  8
LAYER1
  0
BLOCK
  8
LAYER1
  2
Group85
 70
     0
 10
0
 20
0
 30
0
  0
LINE
  8
LAYER1
  6
CONTINUOUS
 62
     7
 10
3.7917
 20
7.6545
 30
0
 11
3.7917
 21
8.4323
 31
0
  0
LINE
  8
LAYER1
  6
CONTINUOUS
 62
     7
 10
3.5556
 20
7.6545
 30
0
 11
3.4167
 21
7.5017
 31
0
  0
INSERT
  8
LAYER1
  2
Group84
 10
0
 20
0
 30
0
  0
POLYLINE
  8
LAYER1
  6
CONTINUOUS
 62
     7
 66
     1
 70
     0
 40
0.0039
 41
0.0039
  0
VERTEX
  8
LAYER1
 10
3.625
 20
7.4323
 30
0
 70
     0
  0
VERTEX
  8
LAYER1
 10
3.625
 20
7.5434
 30
0
 70
     0
  0
VERTEX
  8
LAYER1
 10
3.7083
 20
7.5434
 30
0
 70
     0
  0
VERTEX
  8
LAYER1
 10
3.7083
 20
7.4323
 30
0
 70
     0
  0
SEQEND
  0
LINE
  8
LAYER1
  6
CONTINUOUS
 62
     7
 10
3.9167
 20
7.5017
 30
0
 11
3.7083
 21
7.5017
 31
0
  0
LINE
  8
LAYER1
  6
CONTINUOUS
 62
     7
 10
3.625
 20
7.5017
 30
0
 11
3.4167
 21
7.5017
 31
0
  0
POLYLINE
  8
LAYER1
  6
CONTINUOUS
 62
     7
 66
     1
 70
     0
 40
0.0039
 41
0.0039
  0
VERTEX
  8
LAYER1
 10
3.625
 20
7.4323
 30
0
 70
     0
  0
VERTEX
  8
LAYER1
 10
3.5972
 20
7.4323
 30
0
 70
     0
  0
VERTEX
  8
LAYER1
 10
3.5556
 20
7.4462
 30
0
 70
     0
  0
VERTEX
  8
LAYER1
 10
3.5
 20
7.4601
 30
0
 70
     0
  0
VERTEX
  8
LAYER1
 10
3.4444
 20
7.4878
 30
0
 70
     0
  0
VERTEX
  8
LAYER1
 10
3.4167
 20
7.5017
 30
0
 70
     0
  0
SEQEND
  0
POLYLINE
  8
LAYER1
  6
CONTINUOUS
 62
     7
 66
     1
 70
     0
 40
0.0039
 41
0.0039
  0
VERTEX
  8
LAYER1
 10
3.9167
 20
7.5017
 30
0
 70
     0
  0
VERTEX
  8
LAYER1
 10
3.9028
 20
7.4878
 30
0
 70
     0
  0
VERTEX
  8
LAYER1
 10
3.8472
 20
7.4601
 30
0
 70
     0
  0
VERTEX
  8
LAYER1
 10
3.7917
 20
7.4462
 30
0
 70
     0
  0
VERTEX
  8
LAYER1
 10
3.7361
 20
7.4323
 30
0
 70
     0
  0
VERTEX
  8
LAYER1
 10
3.7083
 20
7.4323
 30
0
 70
     0
  0
SEQEND
  0
ENDBLK
  8
LAYER1
  0
BLOCK
  8
LAYER1
  2
Group86
 70
     0
 10
0
 20
0
 30
0
  0
INSERT
  8
LAYER1
  2
Group83
 10
0
 20
0
 30
0
  0
INSERT
  8
LAYER1
  2
Group85
 10
0
 20
0
 30
0
  0
ENDBLK
  8
LAYER1
  0
BLOCK
  8
LAYER1
  2
Group87
 70
     0
 10
0
 20
0
 30
0
  0
LINE
  8
LAYER1
  6
CONTINUOUS
 62
     7
 10
3.5556
 20
8.8351
 30
0
 11
3.7917
 21
8.8351
 31
0
  0
LINE
  8
LAYER1
  6
CONTINUOUS
 62
     7
 10
3.5556
 20
9.4601
 30
0
 11
3.7917
 21
9.4601
 31
0
  0
LINE
  8
LAYER1
  6
CONTINUOUS
 62
     7
 10
3.5556
 20
9.7378
 30
0
 11
3.7917
 21
9.7378
 31
0
  0
LINE
  8
LAYER1
  6
CONTINUOUS
 62
     7
 10
3.5694
 20
9.7239
 30
0
 11
3.7639
 21
9.7239
 31
0
  0
LINE
  8
LAYER1
  6
CONTINUOUS
 62
     7
 10
3.5556
 20
9.6962
 30
0
 11
3.7917
 21
9.6962
 31
0
  0
LINE
  8
LAYER1
  6
CONTINUOUS
 62
     7
 10
3.5694
 20
9.6823
 30
0
 11
3.7639
 21
9.6823
 31
0
  0
LINE
  8
LAYER1
  6
CONTINUOUS
 62
     7
 10
3.5556
 20
9.6545
 30
0
 11
3.7917
 21
9.6545
 31
0
  0
LINE
  8
LAYER1
  6
CONTINUOUS
 62
     7
 10
3.5694
 20
9.6406
 30
0
 11
3.7639
 21
9.6406
 31
0
  0
LINE
  8
LAYER1
  6
CONTINUOUS
 62
     7
 10
3.5556
 20
9.6267
 30
0
 11
3.7917
 21
9.6267
 31
0
  0
LINE
  8
LAYER1
  6
CONTINUOUS
 62
     7
 10
3.5694
 20
9.5989
 30
0
 11
3.7639
 21
9.5989
 31
0
  0
LINE
  8
LAYER1
  6
CONTINUOUS
 62
     7
 10
3.5556
 20
9.5851
 30
0
 11
3.7917
 21
9.5851
 31
0
  0
LINE
  8
LAYER1
  6
CONTINUOUS
 62
     7
 10
3.5694
 20
9.5573
 30
0
 11
3.7639
 21
9.5573
 31
0
  0
LINE
  8
LAYER1
  6
CONTINUOUS
 62
     7
 10
3.5556
 20
9.5434
 30
0
 11
3.7917
 21
9.5434
 31
0
  0
LINE
  8
LAYER1
  6
CONTINUOUS
 62
     7
 10
3.5694
 20
9.5295
 30
0
 11
3.7639
 21
9.5295
 31
0
  0
LINE
  8
LAYER1
  6
CONTINUOUS
 62
     7
 10
3.5556
 20
9.5017
 30
0
 11
3.7917
 21
9.5017
 31
0
  0
LINE
  8
LAYER1
  6
CONTINUOUS
 62
     7
 10
3.5694
 20
9.4878
 30
0
 11
3.7639
 21
9.4878
 31
0
  0
LINE
  8
LAYER1
  6
CONTINUOUS
 62
     7
 10
3.5694
 20
9.7656
 30
0
 11
3.7639
 21
9.7656
 31
0
  0
LINE
  8
LAYER1
  6
CONTINUOUS
 62
     7
 10
3.5556
 20
9.7378
 30
0
 11
3.5694
 21
9.7656
 31
0
  0
LINE
  8
LAYER1
  6
CONTINUOUS
 62
     7
 10
3.7917
 20
9.7378
 30
0
 11
3.7639
 21
9.7656
 31
0
  0
LINE
  8
LAYER1
  6
CONTINUOUS
 62
     7
 10
3.5556
 20
9.4184
 30
0
 11
3.7917
 21
9.4184
 31
0
  0
LINE
  8
LAYER1
  6
CONTINUOUS
 62
     7
 10
3.5694
 20
9.4462
 30
0
 11
3.7639
 21
9.4462
 31
0
  0
LINE
  8
LAYER1
  6
CONTINUOUS
 62
     7
 10
3.5556
 20
9.3906
 30
0
 11
3.7917
 21
9.3906
 31
0
  0
LINE
  8
LAYER1
  6
CONTINUOUS
 62
     7
 10
3.5694
 20
9.4045
 30
0
 11
3.7639
 21
9.4045
 31
0
  0
LINE
  8
LAYER1
  6
CONTINUOUS
 62
     7
 10
3.5556
 20
9.3489
 30
0
 11
3.7917
 21
9.3489
 31
0
  0
LINE
  8
LAYER1
  6
CONTINUOUS
 62
     7
 10
3.5694
 20
9.3628
 30
0
 11
3.7639
 21
9.3628
 31
0
  0
LINE
  8
LAYER1
  6
CONTINUOUS
 62
     7
 10
3.5556
 20
9.3073
 30
0
 11
3.7917
 21
9.3073
 31
0
  0
LINE
  8
LAYER1
  6
CONTINUOUS
 62
     7
 10
3.5694
 20
9.3212
 30
0
 11
3.7639
 21
9.3212
 31
0
  0
LINE
  8
LAYER1
  6
CONTINUOUS
 62
     7
 10
3.5556
 20
9.2656
 30
0
 11
3.7917
 21
9.2656
 31
0
  0
LINE
  8
LAYER1
  6
CONTINUOUS
 62
     7
 10
3.5694
 20
9.2934
 30
0
 11
3.7639
 21
9.2934
 31
0
  0
LINE
  8
LAYER1
  6
CONTINUOUS
 62
     7
 10
3.5556
 20
9.2239
 30
0
 11
3.7917
 21
9.2239
 31
0
  0
LINE
  8
LAYER1
  6
CONTINUOUS
 62
     7
 10
3.5694
 20
9.2517
 30
0
 11
3.7639
 21
9.2517
 31
0
  0
LINE
  8
LAYER1
  6
CONTINUOUS
 62
     7
 10
3.5556
 20
9.1823
 30
0
 11
3.7917
 21
9.1823
 31
0
  0
LINE
  8
LAYER1
  6
CONTINUOUS
 62
     7
 10
3.5694
 20
9.2101
 30
0
 11
3.7639
 21
9.2101
 31
0
  0
LINE
  8
LAYER1
  6
CONTINUOUS
 62
     7
 10
3.5556
 20
9.1545
 30
0
 11
3.7917
 21
9.1545
 31
0
  0
LINE
  8
LAYER1
  6
CONTINUOUS
 62
     7
 10
3.5694
 20
9.1684
 30
0
 11
3.7639
 21
9.1684
 31
0
  0
LINE
  8
LAYER1
  6
CONTINUOUS
 62
     7
 10
3.5556
 20
9.1128
 30
0
 11
3.7917
 21
9.1128
 31
0
  0
LINE
  8
LAYER1
  6
CONTINUOUS
 62
     7
 10
3.5694
 20
9.1267
 30
0
 11
3.7639
 21
9.1267
 31
0
  0
LINE
  8
LAYER1
  6
CONTINUOUS
 62
     7
 10
3.5556
 20
9.0712
 30
0
 11
3.7917
 21
9.0712
 31
0
  0
LINE
  8
LAYER1
  6
CONTINUOUS
 62
     7
 10
3.5694
 20
9.0851
 30
0
 11
3.7639
 21
9.0851
 31
0
  0
LINE
  8
LAYER1
  6
CONTINUOUS
 62
     7
 10
3.5556
 20
9.0295
 30
0
 11
3.7917
 21
9.0295
 31
0
  0
LINE
  8
LAYER1
  6
CONTINUOUS
 62
     7
 10
3.5694
 20
9.0573
 30
0
 11
3.7639
 21
9.0573
 31
0
  0
LINE
  8
LAYER1
  6
CONTINUOUS
 62
     7
 10
3.5556
 20
8.9878
 30
0
 11
3.7917
 21
8.9878
 31
0
  0
LINE
  8
LAYER1
  6
CONTINUOUS
 62
     7
 10
3.5694
 20
9.0156
 30
0
 11
3.7639
 21
9.0156
 31
0
  0
LINE
  8
LAYER1
  6
CONTINUOUS
 62
     7
 10
3.5556
 20
8.9462
 30
0
 11
3.7917
 21
8.9462
 31
0
  0
LINE
  8
LAYER1
  6
CONTINUOUS
 62
     7
 10
3.5694
 20
8.9739
 30
0
 11
3.7639
 21
8.9739
 31
0
  0
LINE
  8
LAYER1
  6
CONTINUOUS
 62
     7
 10
3.5556
 20
8.9184
 30
0
 11
3.7917
 21
8.9184
 31
0
  0
LINE
  8
LAYER1
  6
CONTINUOUS
 62
     7
 10
3.5694
 20
8.9323
 30
0
 11
3.7639
 21
8.9323
 31
0
  0
LINE
  8
LAYER1
  6
CONTINUOUS
 62
     7
 10
3.5556
 20
8.8767
 30
0
 11
3.7917
 21
8.8767
 31
0
  0
LINE
  8
LAYER1
  6
CONTINUOUS
 62
     7
 10
3.5694
 20
8.8906
 30
0
 11
3.7639
 21
8.8906
 31
0
  0
LINE
  8
LAYER1
  6
CONTINUOUS
 62
     7
 10
3.5694
 20
8.8489
 30
0
 11
3.7639
 21
8.8489
 31
0
  0
LINE
  8
LAYER1
  6
CONTINUOUS
 62
     7
 10
3.5556
 20
8.8351
 30
0
 11
3.5556
 21
9.7378
 31
0
  0
ENDBLK
  8
LAYER1
  0
BLOCK
  8
LAYER1
  2
Group88
 70
     0
 10
0
 20
0
 30
0
  0
LINE
  8
LAYER1
  6
CONTINUOUS
 62
     7
 10
3.7917
 20
8.8351
 30
0
 11
3.9167
 21
8.6823
 31
0
  0
ENDBLK
  8
LAYER1
  0
BLOCK
  8
LAYER1
  2
Group89
 70
     0
 10
0
 20
0
 30
0
  0
LINE
  8
LAYER1
  6
CONTINUOUS
 62
     7
 10
3.7917
 20
8.8351
 30
0
 11
3.7917
 21
9.7378
 31
0
  0
LINE
  8
LAYER1
  6
CONTINUOUS
 62
     7
 10
3.5556
 20
8.8351
 30
0
 11
3.4167
 21
8.6823
 31
0
  0
INSERT
  8
LAYER1
  2
Group88
 10
0
 20
0
 30
0
  0
POLYLINE
  8
LAYER1
  6
CONTINUOUS
 62
     7
 66
     1
 70
     0
 40
0.0039
 41
0.0039
  0
VERTEX
  8
LAYER1
 10
3.625
 20
8.5989
 30
0
 70
     0
  0
VERTEX
  8
LAYER1
 10
3.625
 20
8.7239
 30
0
 70
     0
  0
VERTEX
  8
LAYER1
 10
3.7083
 20
8.7239
 30
0
 70
     0
  0
VERTEX
  8
LAYER1
 10
3.7083
 20
8.5989
 30
0
 70
     0
  0
SEQEND
  0
LINE
  8
LAYER1
  6
CONTINUOUS
 62
     7
 10
3.9167
 20
8.6823
 30
0
 11
3.7083
 21
8.6823
 31
0
  0
LINE
  8
LAYER1
  6
CONTINUOUS
 62
     7
 10
3.625
 20
8.6823
 30
0
 11
3.4167
 21
8.6823
 31
0
  0
POLYLINE
  8
LAYER1
  6
CONTINUOUS
 62
     7
 66
     1
 70
     0
 40
0.0039
 41
0.0039
  0
VERTEX
  8
LAYER1
 10
3.625
 20
8.5989
 30
0
 70
     0
  0
VERTEX
  8
LAYER1
 10
3.5972
 20
8.5989
 30
0
 70
     0
  0
VERTEX
  8
LAYER1
 10
3.5556
 20
8.6128
 30
0
 70
     0
  0
VERTEX
  8
LAYER1
 10
3.4861
 20
8.6406
 30
0
 70
     0
  0
VERTEX
  8
LAYER1
 10
3.4306
 20
8.6684
 30
0
 70
     0
  0
VERTEX
  8
LAYER1
 10
3.4167
 20
8.6823
 30
0
 70
     0
  0
SEQEND
  0
POLYLINE
  8
LAYER1
  6
CONTINUOUS
 62
     7
 66
     1
 70
     0
 40
0.0039
 41
0.0039
  0
VERTEX
  8
LAYER1
 10
3.9167
 20
8.6823
 30
0
 70
     0
  0
VERTEX
  8
LAYER1
 10
3.9028
 20
8.6684
 30
0
 70
     0
  0
VERTEX
  8
LAYER1
 10
3.8472
 20
8.6406
 30
0
 70
     0
  0
VERTEX
  8
LAYER1
 10
3.7778
 20
8.6128
 30
0
 70
     0
  0
VERTEX
  8
LAYER1
 10
3.7361
 20
8.5989
 30
0
 70
     0
  0
VERTEX
  8
LAYER1
 10
3.7083
 20
8.5989
 30
0
 70
     0
  0
SEQEND
  0
ENDBLK
  8
LAYER1
  0
BLOCK
  8
LAYER1
  2
Group90
 70
     0
 10
0
 20
0
 30
0
  0
INSERT
  8
LAYER1
  2
Group87
 10
0
 20
0
 30
0
  0
INSERT
  8
LAYER1
  2
Group89
 10
0
 20
0
 30
0
  0
ENDBLK
  8
LAYER1
  0
BLOCK
  8
LAYER1
  2
Group91
 70
     0
 10
0
 20
0
 30
0
  0
LINE
  8
LAYER1
  6
CONTINUOUS
 62
     7
 10
11.9861
 20
3.7378
 30
0
 11
12.2222
 21
3.7378
 31
0
  0
LINE
  8
LAYER1
  6
CONTINUOUS
 62
     7
 10
11.9861
 20
4.0156
 30
0
 11
12.2222
 21
4.0156
 31
0
  0
LINE
  8
LAYER1
  6
CONTINUOUS
 62
     7
 10
12
 20
4.0017
 30
0
 11
12.1944
 21
4.0017
 31
0
  0
LINE
  8
LAYER1
  6
CONTINUOUS
 62
     7
 10
11.9861
 20
3.9739
 30
0
 11
12.2222
 21
3.9739
 31
0
  0
LINE
  8
LAYER1
  6
CONTINUOUS
 62
     7
 10
12
 20
3.9601
 30
0
 11
12.1944
 21
3.9601
 31
0
  0
LINE
  8
LAYER1
  6
CONTINUOUS
 62
     7
 10
11.9861
 20
3.9462
 30
0
 11
12.2222
 21
3.9462
 31
0
  0
LINE
  8
LAYER1
  6
CONTINUOUS
 62
     7
 10
12
 20
3.9184
 30
0
 11
12.1944
 21
3.9184
 31
0
  0
LINE
  8
LAYER1
  6
CONTINUOUS
 62
     7
 10
11.9861
 20
3.9045
 30
0
 11
12.2222
 21
3.9045
 31
0
  0
LINE
  8
LAYER1
  6
CONTINUOUS
 62
     7
 10
12
 20
3.8767
 30
0
 11
12.1944
 21
3.8767
 31
0
  0
LINE
  8
LAYER1
  6
CONTINUOUS
 62
     7
 10
11.9861
 20
3.8628
 30
0
 11
12.2222
 21
3.8628
 31
0
  0
LINE
  8
LAYER1
  6
CONTINUOUS
 62
     7
 10
12
 20
3.8351
 30
0
 11
12.1944
 21
3.8351
 31
0
  0
LINE
  8
LAYER1
  6
CONTINUOUS
 62
     7
 10
11.9861
 20
3.8212
 30
0
 11
12.2222
 21
3.8212
 31
0
  0
LINE
  8
LAYER1
  6
CONTINUOUS
 62
     7
 10
12
 20
3.8073
 30
0
 11
12.1944
 21
3.8073
 31
0
  0
LINE
  8
LAYER1
  6
CONTINUOUS
 62
     7
 10
11.9861
 20
3.7795
 30
0
 11
12.2222
 21
3.7795
 31
0
  0
LINE
  8
LAYER1
  6
CONTINUOUS
 62
     7
 10
12
 20
3.7656
 30
0
 11
12.1944
 21
3.7656
 31
0
  0
LINE
  8
LAYER1
  6
CONTINUOUS
 62
     7
 10
12
 20
4.0434
 30
0
 11
12.1944
 21
4.0434
 31
0
  0
LINE
  8
LAYER1
  6
CONTINUOUS
 62
     7
 10
11.9861
 20
4.0156
 30
0
 11
12
 21
4.0434
 31
0
  0
LINE
  8
LAYER1
  6
CONTINUOUS
 62
     7
 10
12.2222
 20
4.0156
 30
0
 11
12.1944
 21
4.0434
 31
0
  0
LINE
  8
LAYER1
  6
CONTINUOUS
 62
     7
 10
11.9861
 20
3.7101
 30
0
 11
12.2222
 21
3.7101
 31
0
  0
LINE
  8
LAYER1
  6
CONTINUOUS
 62
     7
 10
12
 20
3.7239
 30
0
 11
12.1944
 21
3.7239
 31
0
  0
LINE
  8
LAYER1
  6
CONTINUOUS
 62
     7
 10
11.9861
 20
3.6684
 30
0
 11
12.2222
 21
3.6684
 31
0
  0
LINE
  8
LAYER1
  6
CONTINUOUS
 62
     7
 10
12
 20
3.6823
 30
0
 11
12.1944
 21
3.6823
 31
0
  0
LINE
  8
LAYER1
  6
CONTINUOUS
 62
     7
 10
11.9861
 20
3.6267
 30
0
 11
12.2222
 21
3.6267
 31
0
  0
LINE
  8
LAYER1
  6
CONTINUOUS
 62
     7
 10
12
 20
3.6406
 30
0
 11
12.1944
 21
3.6406
 31
0
  0
LINE
  8
LAYER1
  6
CONTINUOUS
 62
     7
 10
11.9861
 20
3.5851
 30
0
 11
12.2222
 21
3.5851
 31
0
  0
LINE
  8
LAYER1
  6
CONTINUOUS
 62
     7
 10
12
 20
3.5989
 30
0
 11
12.1944
 21
3.5989
 31
0
  0
LINE
  8
LAYER1
  6
CONTINUOUS
 62
     7
 10
11.9861
 20
3.5434
 30
0
 11
12.2222
 21
3.5434
 31
0
  0
LINE
  8
LAYER1
  6
CONTINUOUS
 62
     7
 10
12
 20
3.5712
 30
0
 11
12.1944
 21
3.5712
 31
0
  0
LINE
  8
LAYER1
  6
CONTINUOUS
 62
     7
 10
11.9861
 20
3.5017
 30
0
 11
12.2222
 21
3.5017
 31
0
  0
LINE
  8
LAYER1
  6
CONTINUOUS
 62
     7
 10
12
 20
3.5295
 30
0
 11
12.1944
 21
3.5295
 31
0
  0
LINE
  8
LAYER1
  6
CONTINUOUS
 62
     7
 10
11.9861
 20
3.4739
 30
0
 11
12.2222
 21
3.4739
 31
0
  0
LINE
  8
LAYER1
  6
CONTINUOUS
 62
     7
 10
12
 20
3.4878
 30
0
 11
12.1944
 21
3.4878
 31
0
  0
LINE
  8
LAYER1
  6
CONTINUOUS
 62
     7
 10
11.9861
 20
3.4323
 30
0
 11
12.2222
 21
3.4323
 31
0
  0
LINE
  8
LAYER1
  6
CONTINUOUS
 62
     7
 10
12
 20
3.4462
 30
0
 11
12.1944
 21
3.4462
 31
0
  0
LINE
  8
LAYER1
  6
CONTINUOUS
 62
     7
 10
11.9861
 20
3.3906
 30
0
 11
12.2222
 21
3.3906
 31
0
  0
LINE
  8
LAYER1
  6
CONTINUOUS
 62
     7
 10
12
 20
3.4045
 30
0
 11
12.1944
 21
3.4045
 31
0
  0
LINE
  8
LAYER1
  6
CONTINUOUS
 62
     7
 10
11.9861
 20
3.3489
 30
0
 11
12.2222
 21
3.3489
 31
0
  0
LINE
  8
LAYER1
  6
CONTINUOUS
 62
     7
 10
12
 20
3.3628
 30
0
 11
12.1944
 21
3.3628
 31
0
  0
LINE
  8
LAYER1
  6
CONTINUOUS
 62
     7
 10
11.9861
 20
3.3073
 30
0
 11
12.2222
 21
3.3073
 31
0
  0
LINE
  8
LAYER1
  6
CONTINUOUS
 62
     7
 10
12
 20
3.3351
 30
0
 11
12.1944
 21
3.3351
 31
0
  0
LINE
  8
LAYER1
  6
CONTINUOUS
 62
     7
 10
11.9861
 20
3.2656
 30
0
 11
12.2222
 21
3.2656
 31
0
  0
LINE
  8
LAYER1
  6
CONTINUOUS
 62
     7
 10
12
 20
3.2934
 30
0
 11
12.1944
 21
3.2934
 31
0
  0
LINE
  8
LAYER1
  6
CONTINUOUS
 62
     7
 10
11.9861
 20
3.2378
 30
0
 11
12.2222
 21
3.2378
 31
0
  0
LINE
  8
LAYER1
  6
CONTINUOUS
 62
     7
 10
12
 20
3.2517
 30
0
 11
12.1944
 21
3.2517
 31
0
  0
LINE
  8
LAYER1
  6
CONTINUOUS
 62
     7
 10
11.9861
 20
3.1962
 30
0
 11
12.2222
 21
3.1962
 31
0
  0
LINE
  8
LAYER1
  6
CONTINUOUS
 62
     7
 10
12
 20
3.2101
 30
0
 11
12.1944
 21
3.2101
 31
0
  0
LINE
  8
LAYER1
  6
CONTINUOUS
 62
     7
 10
11.9861
 20
3.1545
 30
0
 11
12.2222
 21
3.1545
 31
0
  0
LINE
  8
LAYER1
  6
CONTINUOUS
 62
     7
 10
12
 20
3.1684
 30
0
 11
12.1944
 21
3.1684
 31
0
  0
LINE
  8
LAYER1
  6
CONTINUOUS
 62
     7
 10
12
 20
3.1267
 30
0
 11
12.1944
 21
3.1267
 31
0
  0
LINE
  8
LAYER1
  6
CONTINUOUS
 62
     7
 10
11.9861
 20
3.1128
 30
0
 11
12.2222
 21
3.1128
 31
0
  0
LINE
  8
LAYER1
  6
CONTINUOUS
 62
     7
 10
12
 20
3.0989
 30
0
 11
12.1944
 21
3.0989
 31
0
  0
LINE
  8
LAYER1
  6
CONTINUOUS
 62
     7
 10
11.9861
 20
3.0712
 30
0
 11
12.2222
 21
3.0712
 31
0
  0
LINE
  8
LAYER1
  6
CONTINUOUS
 62
     7
 10
12
 20
3.0573
 30
0
 11
12.1944
 21
3.0573
 31
0
  0
LINE
  8
LAYER1
  6
CONTINUOUS
 62
     7
 10
11.9861
 20
3.0295
 30
0
 11
12.2222
 21
3.0295
 31
0
  0
LINE
  8
LAYER1
  6
CONTINUOUS
 62
     7
 10
12
 20
3.0156
 30
0
 11
12.1944
 21
3.0156
 31
0
  0
LINE
  8
LAYER1
  6
CONTINUOUS
 62
     7
 10
11.9861
 20
3.0017
 30
0
 11
12.2222
 21
3.0017
 31
0
  0
LINE
  8
LAYER1
  6
CONTINUOUS
 62
     7
 10
12
 20
2.9739
 30
0
 11
12.1944
 21
2.9739
 31
0
  0
LINE
  8
LAYER1
  6
CONTINUOUS
 62
     7
 10
11.9861
 20
2.9601
 30
0
 11
12.2222
 21
2.9601
 31
0
  0
LINE
  8
LAYER1
  6
CONTINUOUS
 62
     7
 10
12
 20
2.9323
 30
0
 11
12.1944
 21
2.9323
 31
0
  0
LINE
  8
LAYER1
  6
CONTINUOUS
 62
     7
 10
11.9861
 20
2.9184
 30
0
 11
12.2222
 21
2.9184
 31
0
  0
LINE
  8
LAYER1
  6
CONTINUOUS
 62
     7
 10
12
 20
2.8906
 30
0
 11
12.1944
 21
2.8906
 31
0
  0
LINE
  8
LAYER1
  6
CONTINUOUS
 62
     7
 10
11.9861
 20
2.8767
 30
0
 11
12.2222
 21
2.8767
 31
0
  0
LINE
  8
LAYER1
  6
CONTINUOUS
 62
     7
 10
12
 20
2.8628
 30
0
 11
12.1944
 21
2.8628
 31
0
  0
LINE
  8
LAYER1
  6
CONTINUOUS
 62
     7
 10
11.9861
 20
2.8351
 30
0
 11
12.2222
 21
2.8351
 31
0
  0
LINE
  8
LAYER1
  6
CONTINUOUS
 62
     7
 10
12
 20
2.8212
 30
0
 11
12.1944
 21
2.8212
 31
0
  0
LINE
  8
LAYER1
  6
CONTINUOUS
 62
     7
 10
11.9861
 20
2.7934
 30
0
 11
12.2222
 21
2.7934
 31
0
  0
LINE
  8
LAYER1
  6
CONTINUOUS
 62
     7
 10
12
 20
2.7795
 30
0
 11
12.1944
 21
2.7795
 31
0
  0
LINE
  8
LAYER1
  6
CONTINUOUS
 62
     7
 10
11.9861
 20
2.7656
 30
0
 11
12.2222
 21
2.7656
 31
0
  0
LINE
  8
LAYER1
  6
CONTINUOUS
 62
     7
 10
12
 20
2.7378
 30
0
 11
12.1944
 21
2.7378
 31
0
  0
LINE
  8
LAYER1
  6
CONTINUOUS
 62
     7
 10
11.9861
 20
2.7239
 30
0
 11
12.2222
 21
2.7239
 31
0
  0
LINE
  8
LAYER1
  6
CONTINUOUS
 62
     7
 10
12
 20
2.6962
 30
0
 11
12.1944
 21
2.6962
 31
0
  0
LINE
  8
LAYER1
  6
CONTINUOUS
 62
     7
 10
11.9861
 20
2.6823
 30
0
 11
12.2222
 21
2.6823
 31
0
  0
LINE
  8
LAYER1
  6
CONTINUOUS
 62
     7
 10
12
 20
2.6545
 30
0
 11
12.1944
 21
2.6545
 31
0
  0
LINE
  8
LAYER1
  6
CONTINUOUS
 62
     7
 10
11.9861
 20
2.6406
 30
0
 11
12.2222
 21
2.6406
 31
0
  0
LINE
  8
LAYER1
  6
CONTINUOUS
 62
     7
 10
11.9861
 20
2.6267
 30
0
 11
12.2222
 21
2.6267
 31
0
  0
LINE
  8
LAYER1
  6
CONTINUOUS
 62
     7
 10
11.9861
 20
2.6267
 30
0
 11
11.9861
 21
4.0156
 31
0
  0
ENDBLK
  8
LAYER1
  0
BLOCK
  8
LAYER1
  2
Group92
 70
     0
 10
0
 20
0
 30
0
  0
LINE
  8
LAYER1
  6
CONTINUOUS
 62
     7
 10
12.2222
 20
2.6267
 30
0
 11
12.3472
 21
2.4739
 31
0
  0
ENDBLK
  8
LAYER1
  0
BLOCK
  8
LAYER1
  2
Group93
 70
     0
 10
0
 20
0
 30
0
  0
LINE
  8
LAYER1
  6
CONTINUOUS
 62
     7
 10
12.2222
 20
4.0156
 30
0
 11
12.2222
 21
2.6267
 31
0
  0
LINE
  8
LAYER1
  6
CONTINUOUS
 62
     7
 10
11.9861
 20
2.6267
 30
0
 11
11.8472
 21
2.4739
 31
0
  0
INSERT
  8
LAYER1
  2
Group92
 10
0
 20
0
 30
0
  0
POLYLINE
  8
LAYER1
  6
CONTINUOUS
 62
     7
 66
     1
 70
     0
 40
0.0039
 41
0.0039
  0
VERTEX
  8
LAYER1
 10
12.0556
 20
2.3906
 30
0
 70
     0
  0
VERTEX
  8
LAYER1
 10
12.0556
 20
2.5156
 30
0
 70
     0
  0
VERTEX
  8
LAYER1
 10
12.1389
 20
2.5156
 30
0
 70
     0
  0
VERTEX
  8
LAYER1
 10
12.1389
 20
2.3906
 30
0
 70
     0
  0
SEQEND
  0
LINE
  8
LAYER1
  6
CONTINUOUS
 62
     7
 10
12.3472
 20
2.4739
 30
0
 11
12.1389
 21
2.4739
 31
0
  0
LINE
  8
LAYER1
  6
CONTINUOUS
 62
     7
 10
12.0556
 20
2.4739
 30
0
 11
11.8472
 21
2.4739
 31
0
  0
POLYLINE
  8
LAYER1
  6
CONTINUOUS
 62
     7
 66
     1
 70
     0
 40
0.0039
 41
0.0039
  0
VERTEX
  8
LAYER1
 10
12.0556
 20
2.3906
 30
0
 70
     0
  0
VERTEX
  8
LAYER1
 10
12.0278
 20
2.3906
 30
0
 70
     0
  0
VERTEX
  8
LAYER1
 10
11.9861
 20
2.4045
 30
0
 70
     0
  0
VERTEX
  8
LAYER1
 10
11.9167
 20
2.4323
 30
0
 70
     0
  0
VERTEX
  8
LAYER1
 10
11.8611
 20
2.4601
 30
0
 70
     0
  0
VERTEX
  8
LAYER1
 10
11.8472
 20
2.4739
 30
0
 70
     0
  0
SEQEND
  0
POLYLINE
  8
LAYER1
  6
CONTINUOUS
 62
     7
 66
     1
 70
     0
 40
0.0039
 41
0.0039
  0
VERTEX
  8
LAYER1
 10
12.3472
 20
2.4739
 30
0
 70
     0
  0
VERTEX
  8
LAYER1
 10
12.3333
 20
2.4601
 30
0
 70
     0
  0
VERTEX
  8
LAYER1
 10
12.2778
 20
2.4323
 30
0
 70
     0
  0
VERTEX
  8
LAYER1
 10
12.2083
 20
2.4045
 30
0
 70
     0
  0
VERTEX
  8
LAYER1
 10
12.1667
 20
2.3906
 30
0
 70
     0
  0
VERTEX
  8
LAYER1
 10
12.1389
 20
2.3906
 30
0
 70
     0
  0
SEQEND
  0
ENDBLK
  8
LAYER1
  0
BLOCK
  8
LAYER1
  2
Group94
 70
     0
 10
0
 20
0
 30
0
  0
INSERT
  8
LAYER1
  2
Group91
 10
0
 20
0
 30
0
  0
INSERT
  8
LAYER1
  2
Group93
 10
0
 20
0
 30
0
  0
ENDBLK
  8
LAYER1
  0
BLOCK
  8
LAYER1
  2
Group95
 70
     0
 10
0
 20
0
 30
0
  0
LINE
  8
LAYER1
  6
CONTINUOUS
 62
     7
 10
11.9861
 20
4.6128
 30
0
 11
12.2222
 21
4.6128
 31
0
  0
LINE
  8
LAYER1
  6
CONTINUOUS
 62
     7
 10
11.9861
 20
5.9739
 30
0
 11
12.2222
 21
5.9739
 31
0
  0
LINE
  8
LAYER1
  6
CONTINUOUS
 62
     7
 10
11.9861
 20
6.2517
 30
0
 11
12.2222
 21
6.2517
 31
0
  0
LINE
  8
LAYER1
  6
CONTINUOUS
 62
     7
 10
12
 20
6.2239
 30
0
 11
12.1944
 21
6.2239
 31
0
  0
LINE
  8
LAYER1
  6
CONTINUOUS
 62
     7
 10
11.9861
 20
6.2101
 30
0
 11
12.2222
 21
6.2101
 31
0
  0
LINE
  8
LAYER1
  6
CONTINUOUS
 62
     7
 10
12
 20
6.1823
 30
0
 11
12.1944
 21
6.1823
 31
0
  0
LINE
  8
LAYER1
  6
CONTINUOUS
 62
     7
 10
11.9861
 20
6.1684
 30
0
 11
12.2222
 21
6.1684
 31
0
  0
LINE
  8
LAYER1
  6
CONTINUOUS
 62
     7
 10
12
 20
6.1406
 30
0
 11
12.1944
 21
6.1406
 31
0
  0
LINE
  8
LAYER1
  6
CONTINUOUS
 62
     7
 10
11.9861
 20
6.1267
 30
0
 11
12.2222
 21
6.1267
 31
0
  0
LINE
  8
LAYER1
  6
CONTINUOUS
 62
     7
 10
12
 20
6.1128
 30
0
 11
12.1944
 21
6.1128
 31
0
  0
LINE
  8
LAYER1
  6
CONTINUOUS
 62
     7
 10
11.9861
 20
6.0851
 30
0
 11
12.2222
 21
6.0851
 31
0
  0
LINE
  8
LAYER1
  6
CONTINUOUS
 62
     7
 10
12
 20
6.0712
 30
0
 11
12.1944
 21
6.0712
 31
0
  0
LINE
  8
LAYER1
  6
CONTINUOUS
 62
     7
 10
11.9861
 20
6.0434
 30
0
 11
12.2222
 21
6.0434
 31
0
  0
LINE
  8
LAYER1
  6
CONTINUOUS
 62
     7
 10
12
 20
6.0295
 30
0
 11
12.1944
 21
6.0295
 31
0
  0
LINE
  8
LAYER1
  6
CONTINUOUS
 62
     7
 10
11.9861
 20
6.0017
 30
0
 11
12.2222
 21
6.0017
 31
0
  0
LINE
  8
LAYER1
  6
CONTINUOUS
 62
     7
 10
12
 20
5.9878
 30
0
 11
12.1944
 21
5.9878
 31
0
  0
LINE
  8
LAYER1
  6
CONTINUOUS
 62
     7
 10
12
 20
6.2656
 30
0
 11
12.1944
 21
6.2656
 31
0
  0
LINE
  8
LAYER1
  6
CONTINUOUS
 62
     7
 10
11.9861
 20
6.2517
 30
0
 11
12
 21
6.2656
 31
0
  0
LINE
  8
LAYER1
  6
CONTINUOUS
 62
     7
 10
12.2222
 20
6.2517
 30
0
 11
12.1944
 21
6.2656
 31
0
  0
LINE
  8
LAYER1
  6
CONTINUOUS
 62
     7
 10
11.9861
 20
5.9323
 30
0
 11
12.2222
 21
5.9323
 31
0
  0
LINE
  8
LAYER1
  6
CONTINUOUS
 62
     7
 10
12
 20
5.9462
 30
0
 11
12.1944
 21
5.9462
 31
0
  0
LINE
  8
LAYER1
  6
CONTINUOUS
 62
     7
 10
11.9861
 20
5.8906
 30
0
 11
12.2222
 21
5.8906
 31
0
  0
LINE
  8
LAYER1
  6
CONTINUOUS
 62
     7
 10
12
 20
5.9045
 30
0
 11
12.1944
 21
5.9045
 31
0
  0
LINE
  8
LAYER1
  6
CONTINUOUS
 62
     7
 10
11.9861
 20
5.8489
 30
0
 11
12.2222
 21
5.8489
 31
0
  0
LINE
  8
LAYER1
  6
CONTINUOUS
 62
     7
 10
12
 20
5.8767
 30
0
 11
12.1944
 21
5.8767
 31
0
  0
LINE
  8
LAYER1
  6
CONTINUOUS
 62
     7
 10
11.9861
 20
5.8073
 30
0
 11
12.2222
 21
5.8073
 31
0
  0
LINE
  8
LAYER1
  6
CONTINUOUS
 62
     7
 10
12
 20
5.8351
 30
0
 11
12.1944
 21
5.8351
 31
0
  0
LINE
  8
LAYER1
  6
CONTINUOUS
 62
     7
 10
11.9861
 20
5.7656
 30
0
 11
12.2222
 21
5.7656
 31
0
  0
LINE
  8
LAYER1
  6
CONTINUOUS
 62
     7
 10
12
 20
5.7934
 30
0
 11
12.1944
 21
5.7934
 31
0
  0
LINE
  8
LAYER1
  6
CONTINUOUS
 62
     7
 10
11.9861
 20
5.7378
 30
0
 11
12.2222
 21
5.7378
 31
0
  0
LINE
  8
LAYER1
  6
CONTINUOUS
 62
     7
 10
12
 20
5.7517
 30
0
 11
12.1944
 21
5.7517
 31
0
  0
LINE
  8
LAYER1
  6
CONTINUOUS
 62
     7
 10
11.9861
 20
5.6962
 30
0
 11
12.2222
 21
5.6962
 31
0
  0
LINE
  8
LAYER1
  6
CONTINUOUS
 62
     7
 10
12
 20
5.7101
 30
0
 11
12.1944
 21
5.7101
 31
0
  0
LINE
  8
LAYER1
  6
CONTINUOUS
 62
     7
 10
11.9861
 20
5.6545
 30
0
 11
12.2222
 21
5.6545
 31
0
  0
LINE
  8
LAYER1
  6
CONTINUOUS
 62
     7
 10
12
 20
5.6684
 30
0
 11
12.1944
 21
5.6684
 31
0
  0
LINE
  8
LAYER1
  6
CONTINUOUS
 62
     7
 10
11.9861
 20
5.6128
 30
0
 11
12.2222
 21
5.6128
 31
0
  0
LINE
  8
LAYER1
  6
CONTINUOUS
 62
     7
 10
12
 20
5.6406
 30
0
 11
12.1944
 21
5.6406
 31
0
  0
LINE
  8
LAYER1
  6
CONTINUOUS
 62
     7
 10
11.9861
 20
5.5712
 30
0
 11
12.2222
 21
5.5712
 31
0
  0
LINE
  8
LAYER1
  6
CONTINUOUS
 62
     7
 10
12
 20
5.5989
 30
0
 11
12.1944
 21
5.5989
 31
0
  0
LINE
  8
LAYER1
  6
CONTINUOUS
 62
     7
 10
11.9861
 20
5.5295
 30
0
 11
12.2222
 21
5.5295
 31
0
  0
LINE
  8
LAYER1
  6
CONTINUOUS
 62
     7
 10
12
 20
5.5573
 30
0
 11
12.1944
 21
5.5573
 31
0
  0
LINE
  8
LAYER1
  6
CONTINUOUS
 62
     7
 10
11.9861
 20
5.5017
 30
0
 11
12.2222
 21
5.5017
 31
0
  0
LINE
  8
LAYER1
  6
CONTINUOUS
 62
     7
 10
12
 20
5.5156
 30
0
 11
12.1944
 21
5.5156
 31
0
  0
LINE
  8
LAYER1
  6
CONTINUOUS
 62
     7
 10
11.9861
 20
5.4601
 30
0
 11
12.2222
 21
5.4601
 31
0
  0
LINE
  8
LAYER1
  6
CONTINUOUS
 62
     7
 10
12
 20
5.4739
 30
0
 11
12.1944
 21
5.4739
 31
0
  0
LINE
  8
LAYER1
  6
CONTINUOUS
 62
     7
 10
11.9861
 20
5.4184
 30
0
 11
12.2222
 21
5.4184
 31
0
  0
LINE
  8
LAYER1
  6
CONTINUOUS
 62
     7
 10
12
 20
5.4323
 30
0
 11
12.1944
 21
5.4323
 31
0
  0
LINE
  8
LAYER1
  6
CONTINUOUS
 62
     7
 10
11.9861
 20
5.3767
 30
0
 11
12.2222
 21
5.3767
 31
0
  0
LINE
  8
LAYER1
  6
CONTINUOUS
 62
     7
 10
12
 20
5.4045
 30
0
 11
12.1944
 21
5.4045
 31
0
  0
LINE
  8
LAYER1
  6
CONTINUOUS
 62
     7
 10
12
 20
5.3628
 30
0
 11
12.1944
 21
5.3628
 31
0
  0
LINE
  8
LAYER1
  6
CONTINUOUS
 62
     7
 10
11.9861
 20
5.3351
 30
0
 11
12.2222
 21
5.3351
 31
0
  0
LINE
  8
LAYER1
  6
CONTINUOUS
 62
     7
 10
12
 20
5.3212
 30
0
 11
12.1944
 21
5.3212
 31
0
  0
LINE
  8
LAYER1
  6
CONTINUOUS
 62
     7
 10
11.9861
 20
5.2934
 30
0
 11
12.2222
 21
5.2934
 31
0
  0
LINE
  8
LAYER1
  6
CONTINUOUS
 62
     7
 10
12
 20
5.2795
 30
0
 11
12.1944
 21
5.2795
 31
0
  0
LINE
  8
LAYER1
  6
CONTINUOUS
 62
     7
 10
11.9861
 20
5.2656
 30
0
 11
12.2222
 21
5.2656
 31
0
  0
LINE
  8
LAYER1
  6
CONTINUOUS
 62
     7
 10
12
 20
5.2378
 30
0
 11
12.1944
 21
5.2378
 31
0
  0
LINE
  8
LAYER1
  6
CONTINUOUS
 62
     7
 10
11.9861
 20
5.2239
 30
0
 11
12.2222
 21
5.2239
 31
0
  0
LINE
  8
LAYER1
  6
CONTINUOUS
 62
     7
 10
12
 20
5.1962
 30
0
 11
12.1944
 21
5.1962
 31
0
  0
LINE
  8
LAYER1
  6
CONTINUOUS
 62
     7
 10
11.9861
 20
5.1823
 30
0
 11
12.2222
 21
5.1823
 31
0
  0
LINE
  8
LAYER1
  6
CONTINUOUS
 62
     7
 10
12
 20
5.1684
 30
0
 11
12.1944
 21
5.1684
 31
0
  0
LINE
  8
LAYER1
  6
CONTINUOUS
 62
     7
 10
11.9861
 20
5.1406
 30
0
 11
12.2222
 21
5.1406
 31
0
  0
LINE
  8
LAYER1
  6
CONTINUOUS
 62
     7
 10
12
 20
5.1267
 30
0
 11
12.1944
 21
5.1267
 31
0
  0
LINE
  8
LAYER1
  6
CONTINUOUS
 62
     7
 10
11.9861
 20
5.0989
 30
0
 11
12.2222
 21
5.0989
 31
0
  0
LINE
  8
LAYER1
  6
CONTINUOUS
 62
     7
 10
12
 20
5.0851
 30
0
 11
12.1944
 21
5.0851
 31
0
  0
LINE
  8
LAYER1
  6
CONTINUOUS
 62
     7
 10
11.9861
 20
5.0573
 30
0
 11
12.2222
 21
5.0573
 31
0
  0
LINE
  8
LAYER1
  6
CONTINUOUS
 62
     7
 10
12
 20
5.0434
 30
0
 11
12.1944
 21
5.0434
 31
0
  0
LINE
  8
LAYER1
  6
CONTINUOUS
 62
     7
 10
11.9861
 20
5.0295
 30
0
 11
12.2222
 21
5.0295
 31
0
  0
LINE
  8
LAYER1
  6
CONTINUOUS
 62
     7
 10
12
 20
5.0017
 30
0
 11
12.1944
 21
5.0017
 31
0
  0
LINE
  8
LAYER1
  6
CONTINUOUS
 62
     7
 10
11.9861
 20
4.9878
 30
0
 11
12.2222
 21
4.9878
 31
0
  0
LINE
  8
LAYER1
  6
CONTINUOUS
 62
     7
 10
12
 20
4.9601
 30
0
 11
12.1944
 21
4.9601
 31
0
  0
LINE
  8
LAYER1
  6
CONTINUOUS
 62
     7
 10
11.9861
 20
4.9462
 30
0
 11
12.2222
 21
4.9462
 31
0
  0
LINE
  8
LAYER1
  6
CONTINUOUS
 62
     7
 10
12
 20
4.9323
 30
0
 11
12.1944
 21
4.9323
 31
0
  0
LINE
  8
LAYER1
  6
CONTINUOUS
 62
     7
 10
11.9861
 20
4.9045
 30
0
 11
12.2222
 21
4.9045
 31
0
  0
LINE
  8
LAYER1
  6
CONTINUOUS
 62
     7
 10
12
 20
4.8906
 30
0
 11
12.1944
 21
4.8906
 31
0
  0
LINE
  8
LAYER1
  6
CONTINUOUS
 62
     7
 10
11.9861
 20
4.8628
 30
0
 11
12.2222
 21
4.8628
 31
0
  0
LINE
  8
LAYER1
  6
CONTINUOUS
 62
     7
 10
12
 20
4.8489
 30
0
 11
12.1944
 21
4.8489
 31
0
  0
LINE
  8
LAYER1
  6
CONTINUOUS
 62
     7
 10
11.9861
 20
4.8212
 30
0
 11
12.2222
 21
4.8212
 31
0
  0
LINE
  8
LAYER1
  6
CONTINUOUS
 62
     7
 10
12
 20
4.8073
 30
0
 11
12.1944
 21
4.8073
 31
0
  0
LINE
  8
LAYER1
  6
CONTINUOUS
 62
     7
 10
11.9861
 20
4.7934
 30
0
 11
12.2222
 21
4.7934
 31
0
  0
LINE
  8
LAYER1
  6
CONTINUOUS
 62
     7
 10
12
 20
4.7656
 30
0
 11
12.1944
 21
4.7656
 31
0
  0
LINE
  8
LAYER1
  6
CONTINUOUS
 62
     7
 10
11.9861
 20
4.7517
 30
0
 11
12.2222
 21
4.7517
 31
0
  0
LINE
  8
LAYER1
  6
CONTINUOUS
 62
     7
 10
12
 20
4.7239
 30
0
 11
12.1944
 21
4.7239
 31
0
  0
LINE
  8
LAYER1
  6
CONTINUOUS
 62
     7
 10
11.9861
 20
4.7101
 30
0
 11
12.2222
 21
4.7101
 31
0
  0
LINE
  8
LAYER1
  6
CONTINUOUS
 62
     7
 10
12
 20
4.6962
 30
0
 11
12.1944
 21
4.6962
 31
0
  0
LINE
  8
LAYER1
  6
CONTINUOUS
 62
     7
 10
11.9861
 20
4.6684
 30
0
 11
12.2222
 21
4.6684
 31
0
  0
LINE
  8
LAYER1
  6
CONTINUOUS
 62
     7
 10
12
 20
4.6545
 30
0
 11
12.1944
 21
4.6545
 31
0
  0
LINE
  8
LAYER1
  6
CONTINUOUS
 62
     7
 10
11.9861
 20
4.6267
 30
0
 11
12.2222
 21
4.6267
 31
0
  0
LINE
  8
LAYER1
  6
CONTINUOUS
 62
     7
 10
11.9861
 20
4.6128
 30
0
 11
11.9861
 21
6.2517
 31
0
  0
ENDBLK
  8
LAYER1
  0
BLOCK
  8
LAYER1
  2
Group96
 70
     0
 10
0
 20
0
 30
0
  0
LINE
  8
LAYER1
  6
CONTINUOUS
 62
     7
 10
12.2222
 20
4.6128
 30
0
 11
12.3472
 21
4.4601
 31
0
  0
ENDBLK
  8
LAYER1
  0
BLOCK
  8
LAYER1
  2
Group97
 70
     0
 10
0
 20
0
 30
0
  0
LINE
  8
LAYER1
  6
CONTINUOUS
 62
     7
 10
12.2222
 20
4.6128
 30
0
 11
12.2222
 21
6.2517
 31
0
  0
LINE
  8
LAYER1
  6
CONTINUOUS
 62
     7
 10
11.9861
 20
4.6128
 30
0
 11
11.8472
 21
4.4601
 31
0
  0
INSERT
  8
LAYER1
  2
Group96
 10
0
 20
0
 30
0
  0
POLYLINE
  8
LAYER1
  6
CONTINUOUS
 62
     7
 66
     1
 70
     0
 40
0.0039
 41
0.0039
  0
VERTEX
  8
LAYER1
 10
12.0556
 20
4.3767
 30
0
 70
     0
  0
VERTEX
  8
LAYER1
 10
12.0556
 20
4.5017
 30
0
 70
     0
  0
VERTEX
  8
LAYER1
 10
12.1389
 20
4.5017
 30
0
 70
     0
  0
VERTEX
  8
LAYER1
 10
12.1389
 20
4.3767
 30
0
 70
     0
  0
SEQEND
  0
LINE
  8
LAYER1
  6
CONTINUOUS
 62
     7
 10
12.3472
 20
4.4601
 30
0
 11
12.1389
 21
4.4601
 31
0
  0
LINE
  8
LAYER1
  6
CONTINUOUS
 62
     7
 10
12.0556
 20
4.4601
 30
0
 11
11.8472
 21
4.4601
 31
0
  0
POLYLINE
  8
LAYER1
  6
CONTINUOUS
 62
     7
 66
     1
 70
     0
 40
0.0039
 41
0.0039
  0
VERTEX
  8
LAYER1
 10
12.0556
 20
4.3767
 30
0
 70
     0
  0
VERTEX
  8
LAYER1
 10
12.0278
 20
4.3767
 30
0
 70
     0
  0
VERTEX
  8
LAYER1
 10
11.9861
 20
4.3906
 30
0
 70
     0
  0
VERTEX
  8
LAYER1
 10
11.9167
 20
4.4184
 30
0
 70
     0
  0
VERTEX
  8
LAYER1
 10
11.8611
 20
4.4462
 30
0
 70
     0
  0
VERTEX
  8
LAYER1
 10
11.8472
 20
4.4601
 30
0
 70
     0
  0
SEQEND
  0
POLYLINE
  8
LAYER1
  6
CONTINUOUS
 62
     7
 66
     1
 70
     0
 40
0.0039
 41
0.0039
  0
VERTEX
  8
LAYER1
 10
12.3472
 20
4.4601
 30
0
 70
     0
  0
VERTEX
  8
LAYER1
 10
12.3333
 20
4.4462
 30
0
 70
     0
  0
VERTEX
  8
LAYER1
 10
12.2778
 20
4.4184
 30
0
 70
     0
  0
VERTEX
  8
LAYER1
 10
12.2083
 20
4.3906
 30
0
 70
     0
  0
VERTEX
  8
LAYER1
 10
12.1667
 20
4.3767
 30
0
 70
     0
  0
VERTEX
  8
LAYER1
 10
12.1389
 20
4.3767
 30
0
 70
     0
  0
SEQEND
  0
ENDBLK
  8
LAYER1
  0
BLOCK
  8
LAYER1
  2
Group98
 70
     0
 10
0
 20
0
 30
0
  0
INSERT
  8
LAYER1
  2
Group95
 10
0
 20
0
 30
0
  0
INSERT
  8
LAYER1
  2
Group97
 10
0
 20
0
 30
0
  0
ENDBLK
  8
LAYER1
  0
BLOCK
  8
LAYER1
  2
Group99
 70
     0
 10
0
 20
0
 30
0
  0
LINE
  8
LAYER1
  6
CONTINUOUS
 62
     7
 10
11.9861
 20
8.7378
 30
0
 11
12.2222
 21
8.7378
 31
0
  0
LINE
  8
LAYER1
  6
CONTINUOUS
 62
     7
 10
11.9861
 20
9.0156
 30
0
 11
12.2222
 21
9.0156
 31
0
  0
LINE
  8
LAYER1
  6
CONTINUOUS
 62
     7
 10
12
 20
9.0017
 30
0
 11
12.1944
 21
9.0017
 31
0
  0
LINE
  8
LAYER1
  6
CONTINUOUS
 62
     7
 10
11.9861
 20
8.9739
 30
0
 11
12.2222
 21
8.9739
 31
0
  0
LINE
  8
LAYER1
  6
CONTINUOUS
 62
     7
 10
12
 20
8.9601
 30
0
 11
12.1944
 21
8.9601
 31
0
  0
LINE
  8
LAYER1
  6
CONTINUOUS
 62
     7
 10
11.9861
 20
8.9323
 30
0
 11
12.2222
 21
8.9323
 31
0
  0
LINE
  8
LAYER1
  6
CONTINUOUS
 62
     7
 10
12
 20
8.9184
 30
0
 11
12.1944
 21
8.9184
 31
0
  0
LINE
  8
LAYER1
  6
CONTINUOUS
 62
     7
 10
11.9861
 20
8.9045
 30
0
 11
12.2222
 21
8.9045
 31
0
  0
LINE
  8
LAYER1
  6
CONTINUOUS
 62
     7
 10
12
 20
8.8767
 30
0
 11
12.1944
 21
8.8767
 31
0
  0
LINE
  8
LAYER1
  6
CONTINUOUS
 62
     7
 10
11.9861
 20
8.8628
 30
0
 11
12.2222
 21
8.8628
 31
0
  0
LINE
  8
LAYER1
  6
CONTINUOUS
 62
     7
 10
12
 20
8.8351
 30
0
 11
12.1944
 21
8.8351
 31
0
  0
LINE
  8
LAYER1
  6
CONTINUOUS
 62
     7
 10
11.9861
 20
8.8212
 30
0
 11
12.2222
 21
8.8212
 31
0
  0
LINE
  8
LAYER1
  6
CONTINUOUS
 62
     7
 10
12
 20
8.7934
 30
0
 11
12.1944
 21
8.7934
 31
0
  0
LINE
  8
LAYER1
  6
CONTINUOUS
 62
     7
 10
11.9861
 20
8.7795
 30
0
 11
12.2222
 21
8.7795
 31
0
  0
LINE
  8
LAYER1
  6
CONTINUOUS
 62
     7
 10
12
 20
8.7656
 30
0
 11
12.1944
 21
8.7656
 31
0
  0
LINE
  8
LAYER1
  6
CONTINUOUS
 62
     7
 10
12
 20
9.0295
 30
0
 11
12.1944
 21
9.0295
 31
0
  0
LINE
  8
LAYER1
  6
CONTINUOUS
 62
     7
 10
11.9861
 20
9.0156
 30
0
 11
12
 21
9.0295
 31
0
  0
LINE
  8
LAYER1
  6
CONTINUOUS
 62
     7
 10
12.2222
 20
9.0156
 30
0
 11
12.1944
 21
9.0295
 31
0
  0
LINE
  8
LAYER1
  6
CONTINUOUS
 62
     7
 10
11.9861
 20
8.6962
 30
0
 11
12.2222
 21
8.6962
 31
0
  0
LINE
  8
LAYER1
  6
CONTINUOUS
 62
     7
 10
12
 20
8.7239
 30
0
 11
12.1944
 21
8.7239
 31
0
  0
LINE
  8
LAYER1
  6
CONTINUOUS
 62
     7
 10
11.9861
 20
8.6684
 30
0
 11
12.2222
 21
8.6684
 31
0
  0
LINE
  8
LAYER1
  6
CONTINUOUS
 62
     7
 10
12
 20
8.6823
 30
0
 11
12.1944
 21
8.6823
 31
0
  0
LINE
  8
LAYER1
  6
CONTINUOUS
 62
     7
 10
11.9861
 20
8.6267
 30
0
 11
12.2222
 21
8.6267
 31
0
  0
LINE
  8
LAYER1
  6
CONTINUOUS
 62
     7
 10
12
 20
8.6406
 30
0
 11
12.1944
 21
8.6406
 31
0
  0
LINE
  8
LAYER1
  6
CONTINUOUS
 62
     7
 10
11.9861
 20
8.5851
 30
0
 11
12.2222
 21
8.5851
 31
0
  0
LINE
  8
LAYER1
  6
CONTINUOUS
 62
     7
 10
12
 20
8.5989
 30
0
 11
12.1944
 21
8.5989
 31
0
  0
LINE
  8
LAYER1
  6
CONTINUOUS
 62
     7
 10
11.9861
 20
8.5434
 30
0
 11
12.2222
 21
8.5434
 31
0
  0
LINE
  8
LAYER1
  6
CONTINUOUS
 62
     7
 10
12
 20
8.5573
 30
0
 11
12.1944
 21
8.5573
 31
0
  0
LINE
  8
LAYER1
  6
CONTINUOUS
 62
     7
 10
11.9861
 20
8.5017
 30
0
 11
12.2222
 21
8.5017
 31
0
  0
LINE
  8
LAYER1
  6
CONTINUOUS
 62
     7
 10
12
 20
8.5295
 30
0
 11
12.1944
 21
8.5295
 31
0
  0
LINE
  8
LAYER1
  6
CONTINUOUS
 62
     7
 10
11.9861
 20
8.4601
 30
0
 11
12.2222
 21
8.4601
 31
0
  0
LINE
  8
LAYER1
  6
CONTINUOUS
 62
     7
 10
12
 20
8.4878
 30
0
 11
12.1944
 21
8.4878
 31
0
  0
LINE
  8
LAYER1
  6
CONTINUOUS
 62
     7
 10
11.9861
 20
8.4323
 30
0
 11
12.2222
 21
8.4323
 31
0
  0
LINE
  8
LAYER1
  6
CONTINUOUS
 62
     7
 10
12
 20
8.4462
 30
0
 11
12.1944
 21
8.4462
 31
0
  0
LINE
  8
LAYER1
  6
CONTINUOUS
 62
     7
 10
11.9861
 20
8.3906
 30
0
 11
12.2222
 21
8.3906
 31
0
  0
LINE
  8
LAYER1
  6
CONTINUOUS
 62
     7
 10
12
 20
8.4045
 30
0
 11
12.1944
 21
8.4045
 31
0
  0
LINE
  8
LAYER1
  6
CONTINUOUS
 62
     7
 10
11.9861
 20
8.3489
 30
0
 11
12.2222
 21
8.3489
 31
0
  0
LINE
  8
LAYER1
  6
CONTINUOUS
 62
     7
 10
12
 20
8.3628
 30
0
 11
12.1944
 21
8.3628
 31
0
  0
LINE
  8
LAYER1
  6
CONTINUOUS
 62
     7
 10
11.9861
 20
8.3073
 30
0
 11
12.2222
 21
8.3073
 31
0
  0
LINE
  8
LAYER1
  6
CONTINUOUS
 62
     7
 10
12
 20
8.3212
 30
0
 11
12.1944
 21
8.3212
 31
0
  0
LINE
  8
LAYER1
  6
CONTINUOUS
 62
     7
 10
11.9861
 20
8.2656
 30
0
 11
12.2222
 21
8.2656
 31
0
  0
LINE
  8
LAYER1
  6
CONTINUOUS
 62
     7
 10
12
 20
8.2934
 30
0
 11
12.1944
 21
8.2934
 31
0
  0
LINE
  8
LAYER1
  6
CONTINUOUS
 62
     7
 10
11.9861
 20
8.2239
 30
0
 11
12.2222
 21
8.2239
 31
0
  0
LINE
  8
LAYER1
  6
CONTINUOUS
 62
     7
 10
12
 20
8.2517
 30
0
 11
12.1944
 21
8.2517
 31
0
  0
LINE
  8
LAYER1
  6
CONTINUOUS
 62
     7
 10
11.9861
 20
8.1962
 30
0
 11
12.2222
 21
8.1962
 31
0
  0
LINE
  8
LAYER1
  6
CONTINUOUS
 62
     7
 10
12
 20
8.2101
 30
0
 11
12.1944
 21
8.2101
 31
0
  0
LINE
  8
LAYER1
  6
CONTINUOUS
 62
     7
 10
11.9861
 20
8.1545
 30
0
 11
12.2222
 21
8.1545
 31
0
  0
LINE
  8
LAYER1
  6
CONTINUOUS
 62
     7
 10
12
 20
8.1684
 30
0
 11
12.1944
 21
8.1684
 31
0
  0
LINE
  8
LAYER1
  6
CONTINUOUS
 62
     7
 10
12
 20
8.1267
 30
0
 11
12.1944
 21
8.1267
 31
0
  0
LINE
  8
LAYER1
  6
CONTINUOUS
 62
     7
 10
11.9861
 20
8.1128
 30
0
 11
12.2222
 21
8.1128
 31
0
  0
LINE
  8
LAYER1
  6
CONTINUOUS
 62
     7
 10
12
 20
8.0851
 30
0
 11
12.1944
 21
8.0851
 31
0
  0
LINE
  8
LAYER1
  6
CONTINUOUS
 62
     7
 10
11.9861
 20
8.0712
 30
0
 11
12.2222
 21
8.0712
 31
0
  0
LINE
  8
LAYER1
  6
CONTINUOUS
 62
     7
 10
12
 20
8.0573
 30
0
 11
12.1944
 21
8.0573
 31
0
  0
LINE
  8
LAYER1
  6
CONTINUOUS
 62
     7
 10
11.9861
 20
8.0295
 30
0
 11
12.2222
 21
8.0295
 31
0
  0
LINE
  8
LAYER1
  6
CONTINUOUS
 62
     7
 10
12
 20
8.0156
 30
0
 11
12.1944
 21
8.0156
 31
0
  0
LINE
  8
LAYER1
  6
CONTINUOUS
 62
     7
 10
11.9861
 20
7.9878
 30
0
 11
12.2222
 21
7.9878
 31
0
  0
LINE
  8
LAYER1
  6
CONTINUOUS
 62
     7
 10
12
 20
7.9739
 30
0
 11
12.1944
 21
7.9739
 31
0
  0
LINE
  8
LAYER1
  6
CONTINUOUS
 62
     7
 10
11.9861
 20
7.9601
 30
0
 11
12.2222
 21
7.9601
 31
0
  0
LINE
  8
LAYER1
  6
CONTINUOUS
 62
     7
 10
12
 20
7.9323
 30
0
 11
12.1944
 21
7.9323
 31
0
  0
LINE
  8
LAYER1
  6
CONTINUOUS
 62
     7
 10
11.9861
 20
7.9184
 30
0
 11
12.2222
 21
7.9184
 31
0
  0
LINE
  8
LAYER1
  6
CONTINUOUS
 62
     7
 10
12
 20
7.8906
 30
0
 11
12.1944
 21
7.8906
 31
0
  0
LINE
  8
LAYER1
  6
CONTINUOUS
 62
     7
 10
11.9861
 20
7.8767
 30
0
 11
12.2222
 21
7.8767
 31
0
  0
LINE
  8
LAYER1
  6
CONTINUOUS
 62
     7
 10
12
 20
7.8489
 30
0
 11
12.1944
 21
7.8489
 31
0
  0
LINE
  8
LAYER1
  6
CONTINUOUS
 62
     7
 10
11.9861
 20
7.8351
 30
0
 11
12.2222
 21
7.8351
 31
0
  0
LINE
  8
LAYER1
  6
CONTINUOUS
 62
     7
 10
12
 20
7.8212
 30
0
 11
12.1944
 21
7.8212
 31
0
  0
LINE
  8
LAYER1
  6
CONTINUOUS
 62
     7
 10
11.9861
 20
7.7934
 30
0
 11
12.2222
 21
7.7934
 31
0
  0
LINE
  8
LAYER1
  6
CONTINUOUS
 62
     7
 10
12
 20
7.7795
 30
0
 11
12.1944
 21
7.7795
 31
0
  0
LINE
  8
LAYER1
  6
CONTINUOUS
 62
     7
 10
11.9861
 20
7.7517
 30
0
 11
12.2222
 21
7.7517
 31
0
  0
LINE
  8
LAYER1
  6
CONTINUOUS
 62
     7
 10
12
 20
7.7378
 30
0
 11
12.1944
 21
7.7378
 31
0
  0
LINE
  8
LAYER1
  6
CONTINUOUS
 62
     7
 10
11.9861
 20
7.7239
 30
0
 11
12.2222
 21
7.7239
 31
0
  0
LINE
  8
LAYER1
  6
CONTINUOUS
 62
     7
 10
12
 20
7.6962
 30
0
 11
12.1944
 21
7.6962
 31
0
  0
LINE
  8
LAYER1
  6
CONTINUOUS
 62
     7
 10
11.9861
 20
7.6823
 30
0
 11
12.2222
 21
7.6823
 31
0
  0
LINE
  8
LAYER1
  6
CONTINUOUS
 62
     7
 10
12
 20
7.6545
 30
0
 11
12.1944
 21
7.6545
 31
0
  0
LINE
  8
LAYER1
  6
CONTINUOUS
 62
     7
 10
11.9861
 20
7.6406
 30
0
 11
12.2222
 21
7.6406
 31
0
  0
LINE
  8
LAYER1
  6
CONTINUOUS
 62
     7
 10
12
 20
7.6128
 30
0
 11
12.1944
 21
7.6128
 31
0
  0
LINE
  8
LAYER1
  6
CONTINUOUS
 62
     7
 10
11.9861
 20
7.5989
 30
0
 11
12.2222
 21
7.5989
 31
0
  0
LINE
  8
LAYER1
  6
CONTINUOUS
 62
     7
 10
12
 20
7.5851
 30
0
 11
12.1944
 21
7.5851
 31
0
  0
LINE
  8
LAYER1
  6
CONTINUOUS
 62
     7
 10
11.9861
 20
7.5573
 30
0
 11
12.2222
 21
7.5573
 31
0
  0
LINE
  8
LAYER1
  6
CONTINUOUS
 62
     7
 10
12
 20
7.5434
 30
0
 11
12.1944
 21
7.5434
 31
0
  0
LINE
  8
LAYER1
  6
CONTINUOUS
 62
     7
 10
11.9861
 20
7.5156
 30
0
 11
12.2222
 21
7.5156
 31
0
  0
LINE
  8
LAYER1
  6
CONTINUOUS
 62
     7
 10
12
 20
7.5017
 30
0
 11
12.1944
 21
7.5017
 31
0
  0
LINE
  8
LAYER1
  6
CONTINUOUS
 62
     7
 10
11.9861
 20
7.4878
 30
0
 11
12.2222
 21
7.4878
 31
0
  0
LINE
  8
LAYER1
  6
CONTINUOUS
 62
     7
 10
12
 20
7.4601
 30
0
 11
12.1944
 21
7.4601
 31
0
  0
LINE
  8
LAYER1
  6
CONTINUOUS
 62
     7
 10
11.9861
 20
7.4462
 30
0
 11
12.2222
 21
7.4462
 31
0
  0
LINE
  8
LAYER1
  6
CONTINUOUS
 62
     7
 10
12
 20
7.4184
 30
0
 11
12.1944
 21
7.4184
 31
0
  0
LINE
  8
LAYER1
  6
CONTINUOUS
 62
     7
 10
11.9861
 20
7.4045
 30
0
 11
12.2222
 21
7.4045
 31
0
  0
LINE
  8
LAYER1
  6
CONTINUOUS
 62
     7
 10
12
 20
7.3767
 30
0
 11
12.1944
 21
7.3767
 31
0
  0
LINE
  8
LAYER1
  6
CONTINUOUS
 62
     7
 10
11.9861
 20
7.3628
 30
0
 11
12.2222
 21
7.3628
 31
0
  0
LINE
  8
LAYER1
  6
CONTINUOUS
 62
     7
 10
12
 20
7.3489
 30
0
 11
12.1944
 21
7.3489
 31
0
  0
LINE
  8
LAYER1
  6
CONTINUOUS
 62
     7
 10
11.9861
 20
7.3212
 30
0
 11
12.2222
 21
7.3212
 31
0
  0
LINE
  8
LAYER1
  6
CONTINUOUS
 62
     7
 10
12
 20
7.3073
 30
0
 11
12.1944
 21
7.3073
 31
0
  0
LINE
  8
LAYER1
  6
CONTINUOUS
 62
     7
 10
11.9861
 20
7.2795
 30
0
 11
12.2222
 21
7.2795
 31
0
  0
LINE
  8
LAYER1
  6
CONTINUOUS
 62
     7
 10
12
 20
7.2656
 30
0
 11
12.1944
 21
7.2656
 31
0
  0
LINE
  8
LAYER1
  6
CONTINUOUS
 62
     7
 10
11.9861
 20
7.2517
 30
0
 11
12.2222
 21
7.2517
 31
0
  0
LINE
  8
LAYER1
  6
CONTINUOUS
 62
     7
 10
12
 20
7.2239
 30
0
 11
12.1944
 21
7.2239
 31
0
  0
LINE
  8
LAYER1
  6
CONTINUOUS
 62
     7
 10
11.9861
 20
7.1406
 30
0
 11
12.2222
 21
7.1406
 31
0
  0
LINE
  8
LAYER1
  6
CONTINUOUS
 62
     7
 10
11.9861
 20
7.2101
 30
0
 11
12.2222
 21
7.2101
 31
0
  0
LINE
  8
LAYER1
  6
CONTINUOUS
 62
     7
 10
12
 20
7.1823
 30
0
 11
12.1944
 21
7.1823
 31
0
  0
LINE
  8
LAYER1
  6
CONTINUOUS
 62
     7
 10
11.9861
 20
7.1684
 30
0
 11
12.2222
 21
7.1684
 31
0
  0
LINE
  8
LAYER1
  6
CONTINUOUS
 62
     7
 10
12.2222
 20
9.0156
 30
0
 11
12.2222
 21
7.1406
 31
0
  0
ENDBLK
  8
LAYER1
  0
BLOCK
  8
LAYER1
  2
Group100
 70
     0
 10
0
 20
0
 30
0
  0
LINE
  8
LAYER1
  6
CONTINUOUS
 62
     7
 10
12.2222
 20
7.1545
 30
0
 11
12.3472
 21
7.0017
 31
0
  0
ENDBLK
  8
LAYER1
  0
BLOCK
  8
LAYER1
  2
Group101
 70
     0
 10
0
 20
0
 30
0
  0
LINE
  8
LAYER1
  6
CONTINUOUS
 62
     7
 10
11.9861
 20
7.1406
 30
0
 11
11.9861
 21
9.0156
 31
0
  0
LINE
  8
LAYER1
  6
CONTINUOUS
 62
     7
 10
11.9861
 20
7.1545
 30
0
 11
11.8472
 21
7.0017
 31
0
  0
INSERT
  8
LAYER1
  2
Group100
 10
0
 20
0
 30
0
  0
POLYLINE
  8
LAYER1
  6
CONTINUOUS
 62
     7
 66
     1
 70
     0
 40
0.0039
 41
0.0039
  0
VERTEX
  8
LAYER1
 10
12.0556
 20
6.9184
 30
0
 70
     0
  0
VERTEX
  8
LAYER1
 10
12.0556
 20
7.0434
 30
0
 70
     0
  0
VERTEX
  8
LAYER1
 10
12.1389
 20
7.0434
 30
0
 70
     0
  0
VERTEX
  8
LAYER1
 10
12.1389
 20
6.9184
 30
0
 70
     0
  0
SEQEND
  0
LINE
  8
LAYER1
  6
CONTINUOUS
 62
     7
 10
12.3472
 20
7.0017
 30
0
 11
12.1389
 21
7.0017
 31
0
  0
LINE
  8
LAYER1
  6
CONTINUOUS
 62
     7
 10
12.0556
 20
7.0017
 30
0
 11
11.8472
 21
7.0017
 31
0
  0
POLYLINE
  8
LAYER1
  6
CONTINUOUS
 62
     7
 66
     1
 70
     0
 40
0.0039
 41
0.0039
  0
VERTEX
  8
LAYER1
 10
12.0556
 20
6.9184
 30
0
 70
     0
  0
VERTEX
  8
LAYER1
 10
12.0278
 20
6.9184
 30
0
 70
     0
  0
VERTEX
  8
LAYER1
 10
11.9861
 20
6.9323
 30
0
 70
     0
  0
VERTEX
  8
LAYER1
 10
11.9167
 20
6.9601
 30
0
 70
     0
  0
VERTEX
  8
LAYER1
 10
11.8611
 20
6.9878
 30
0
 70
     0
  0
VERTEX
  8
LAYER1
 10
11.8472
 20
7.0017
 30
0
 70
     0
  0
SEQEND
  0
POLYLINE
  8
LAYER1
  6
CONTINUOUS
 62
     7
 66
     1
 70
     0
 40
0.0039
 41
0.0039
  0
VERTEX
  8
LAYER1
 10
12.3472
 20
7.0017
 30
0
 70
     0
  0
VERTEX
  8
LAYER1
 10
12.3333
 20
6.9878
 30
0
 70
     0
  0
VERTEX
  8
LAYER1
 10
12.2778
 20
6.9601
 30
0
 70
     0
  0
VERTEX
  8
LAYER1
 10
12.2083
 20
6.9323
 30
0
 70
     0
  0
VERTEX
  8
LAYER1
 10
12.1667
 20
6.9184
 30
0
 70
     0
  0
VERTEX
  8
LAYER1
 10
12.1389
 20
6.9184
 30
0
 70
     0
  0
SEQEND
  0
ENDBLK
  8
LAYER1
  0
BLOCK
  8
LAYER1
  2
Group102
 70
     0
 10
0
 20
0
 30
0
  0
INSERT
  8
LAYER1
  2
Group99
 10
0
 20
0
 30
0
  0
INSERT
  8
LAYER1
  2
Group101
 10
0
 20
0
 30
0
  0
ENDBLK
  8
LAYER1
  0
BLOCK
  8
LAYER1
  2
Group103
 70
     0
 10
0
 20
0
 30
0
  0
POLYLINE
  8
LAYER1
  6
CONTINUOUS
 62
     7
 66
     1
 70
     0
 40
0.0039
 41
0.0039
  0
VERTEX
  8
LAYER1
 10
2.9722
 20
4.5156
 30
0
 70
     0
  0
VERTEX
  8
LAYER1
 10
3
 20
4.5434
 30
0
 70
     0
  0
VERTEX
  8
LAYER1
 10
3.1389
 20
4.5434
 30
0
 70
     0
  0
SEQEND
  0
LINE
  8
LAYER1
  6
CONTINUOUS
 62
     7
 10
2.9722
 20
4.1545
 30
0
 11
3.1667
 21
4.1545
 31
0
  0
POLYLINE
  8
LAYER1
  6
CONTINUOUS
 62
     7
 66
     1
 70
     0
 40
0.0019
 41
0.0019
  0
VERTEX
  8
LAYER1
 10
2.9722
 20
4.1545
 30
0
 70
     0
  0
VERTEX
  8
LAYER1
 10
2.9722
 20
4.5156
 30
0
 70
     0
  0
VERTEX
  8
LAYER1
 10
3.1667
 20
4.5156
 30
0
 70
     0
  0
SEQEND
  0
LINE
  8
LAYER1
  6
CONTINUOUS
 62
     7
 10
2.9722
 20
4.4878
 30
0
 11
3.1667
 21
4.4878
 31
0
  0
LINE
  8
LAYER1
  6
CONTINUOUS
 62
     7
 10
2.9722
 20
4.4601
 30
0
 11
3.1667
 21
4.4601
 31
0
  0
LINE
  8
LAYER1
  6
CONTINUOUS
 62
     7
 10
2.9722
 20
4.4184
 30
0
 11
3.1667
 21
4.4184
 31
0
  0
LINE
  8
LAYER1
  6
CONTINUOUS
 62
     7
 10
2.9722
 20
4.3906
 30
0
 11
3.1667
 21
4.3906
 31
0
  0
LINE
  8
LAYER1
  6
CONTINUOUS
 62
     7
 10
2.9722
 20
4.3628
 30
0
 11
3.1667
 21
4.3628
 31
0
  0
LINE
  8
LAYER1
  6
CONTINUOUS
 62
     7
 10
2.9722
 20
4.3212
 30
0
 11
3.1667
 21
4.3212
 31
0
  0
LINE
  8
LAYER1
  6
CONTINUOUS
 62
     7
 10
2.9722
 20
4.2934
 30
0
 11
3.1667
 21
4.2934
 31
0
  0
LINE
  8
LAYER1
  6
CONTINUOUS
 62
     7
 10
2.9722
 20
4.2656
 30
0
 11
3.1667
 21
4.2656
 31
0
  0
LINE
  8
LAYER1
  6
CONTINUOUS
 62
     7
 10
2.9861
 20
4.5017
 30
0
 11
3.1389
 21
4.5017
 31
0
  0
LINE
  8
LAYER1
  6
CONTINUOUS
 62
     7
 10
2.9861
 20
4.4739
 30
0
 11
3.1389
 21
4.4739
 31
0
  0
LINE
  8
LAYER1
  6
CONTINUOUS
 62
     7
 10
2.9861
 20
4.4323
 30
0
 11
3.1389
 21
4.4323
 31
0
  0
LINE
  8
LAYER1
  6
CONTINUOUS
 62
     7
 10
2.9861
 20
4.4045
 30
0
 11
3.1389
 21
4.4045
 31
0
  0
LINE
  8
LAYER1
  6
CONTINUOUS
 62
     7
 10
2.9861
 20
4.3767
 30
0
 11
3.1389
 21
4.3767
 31
0
  0
LINE
  8
LAYER1
  6
CONTINUOUS
 62
     7
 10
2.9861
 20
4.3489
 30
0
 11
3.1389
 21
4.3489
 31
0
  0
LINE
  8
LAYER1
  6
CONTINUOUS
 62
     7
 10
2.9861
 20
4.3073
 30
0
 11
3.1389
 21
4.3073
 31
0
  0
LINE
  8
LAYER1
  6
CONTINUOUS
 62
     7
 10
2.9861
 20
4.2795
 30
0
 11
3.1389
 21
4.2795
 31
0
  0
LINE
  8
LAYER1
  6
CONTINUOUS
 62
     7
 10
2.9861
 20
4.2517
 30
0
 11
3.1389
 21
4.2517
 31
0
  0
LINE
  8
LAYER1
  6
CONTINUOUS
 62
     7
 10
2.9722
 20
4.2378
 30
0
 11
3.1667
 21
4.2378
 31
0
  0
LINE
  8
LAYER1
  6
CONTINUOUS
 62
     7
 10
2.9861
 20
4.2239
 30
0
 11
3.1389
 21
4.2239
 31
0
  0
LINE
  8
LAYER1
  6
CONTINUOUS
 62
     7
 10
2.9722
 20
4.1962
 30
0
 11
3.1667
 21
4.1962
 31
0
  0
LINE
  8
LAYER1
  6
CONTINUOUS
 62
     7
 10
2.9861
 20
4.1823
 30
0
 11
3.1389
 21
4.1823
 31
0
  0
LINE
  8
LAYER1
  6
CONTINUOUS
 62
     7
 10
2.9722
 20
4.1684
 30
0
 11
3.1667
 21
4.1684
 31
0
  0
ENDBLK
  8
LAYER1
  0
BLOCK
  8
LAYER1
  2
Group104
 70
     0
 10
0
 20
0
 30
0
  0
POLYLINE
  8
LAYER1
  6
CONTINUOUS
 62
     7
 66
     1
 70
     0
 40
0.0039
 41
0.0039
  0
VERTEX
  8
LAYER1
 10
3.1667
 20
4.1545
 30
0
 70
     0
  0
VERTEX
  8
LAYER1
 10
3.1667
 20
4.5156
 30
0
 70
     0
  0
VERTEX
  8
LAYER1
 10
3.1389
 20
4.5434
 30
0
 70
     0
  0
SEQEND
  0
LINE
  8
LAYER1
  6
CONTINUOUS
 62
     7
 10
2.9722
 20
4.1545
 30
0
 11
2.875
 21
4.0434
 31
0
  0
LINE
  8
LAYER1
  6
CONTINUOUS
 62
     7
 10
3.1667
 20
4.1545
 30
0
 11
3.25
 21
4.0434
 31
0
  0
POLYLINE
  8
LAYER1
  6
CONTINUOUS
 62
     7
 66
     1
 70
     0
 40
0.0039
 41
0.0039
  0
VERTEX
  8
LAYER1
 10
3.0417
 20
4.0017
 30
0
 70
     0
  0
VERTEX
  8
LAYER1
 10
3.0417
 20
4.0989
 30
0
 70
     0
  0
VERTEX
  8
LAYER1
 10
3.0972
 20
4.0989
 30
0
 70
     0
  0
VERTEX
  8
LAYER1
 10
3.0972
 20
4.0017
 30
0
 70
     0
  0
SEQEND
  0
LINE
  8
LAYER1
  6
CONTINUOUS
 62
     7
 10
3.25
 20
4.0434
 30
0
 11
3.0972
 21
4.0434
 31
0
  0
LINE
  8
LAYER1
  6
CONTINUOUS
 62
     7
 10
3.0417
 20
4.0434
 30
0
 11
2.875
 21
4.0434
 31
0
  0
POLYLINE
  8
LAYER1
  6
CONTINUOUS
 62
     7
 66
     1
 70
     0
 40
0.0039
 41
0.0039
  0
VERTEX
  8
LAYER1
 10
3.0278
 20
4.0017
 30
0
 70
     0
  0
VERTEX
  8
LAYER1
 10
3.0139
 20
4.0017
 30
0
 70
     0
  0
VERTEX
  8
LAYER1
 10
2.9722
 20
4.0017
 30
0
 70
     0
  0
VERTEX
  8
LAYER1
 10
2.9306
 20
4.0156
 30
0
 70
     0
  0
VERTEX
  8
LAYER1
 10
2.9028
 20
4.0295
 30
0
 70
     0
  0
VERTEX
  8
LAYER1
 10
2.875
 20
4.0434
 30
0
 70
     0
  0
SEQEND
  0
POLYLINE
  8
LAYER1
  6
CONTINUOUS
 62
     7
 66
     1
 70
     0
 40
0.0039
 41
0.0039
  0
VERTEX
  8
LAYER1
 10
3.25
 20
4.0434
 30
0
 70
     0
  0
VERTEX
  8
LAYER1
 10
3.2222
 20
4.0295
 30
0
 70
     0
  0
VERTEX
  8
LAYER1
 10
3.1944
 20
4.0156
 30
0
 70
     0
  0
VERTEX
  8
LAYER1
 10
3.1528
 20
4.0017
 30
0
 70
     0
  0
VERTEX
  8
LAYER1
 10
3.125
 20
4.0017
 30
0
 70
     0
  0
VERTEX
  8
LAYER1
 10
3.0972
 20
4.0017
 30
0
 70
     0
  0
SEQEND
  0
ENDBLK
  8
LAYER1
  0
BLOCK
  8
LAYER1
  2
Group105
 70
     0
 10
0
 20
0
 30
0
  0
INSERT
  8
LAYER1
  2
Group103
 10
0
 20
0
 30
0
  0
INSERT
  8
LAYER1
  2
Group104
 10
0
 20
0
 30
0
  0
ENDBLK
  8
LAYER1
  0
BLOCK
  8
LAYER1
  2
Group106
 70
     0
 10
0
 20
0
 30
0
  0
POLYLINE
  8
LAYER1
  6
CONTINUOUS
 62
     7
 66
     1
 70
     0
 40
0.0039
 41
0.0039
  0
VERTEX
  8
LAYER1
 10
2.9722
 20
5.3073
 30
0
 70
     0
  0
VERTEX
  8
LAYER1
 10
3
 20
5.3351
 30
0
 70
     0
  0
VERTEX
  8
LAYER1
 10
3.1389
 20
5.3351
 30
0
 70
     0
  0
SEQEND
  0
LINE
  8
LAYER1
  6
CONTINUOUS
 62
     7
 10
3.1667
 20
5.3073
 30
0
 11
3.1389
 21
5.3351
 31
0
  0
LINE
  8
LAYER1
  6
CONTINUOUS
 62
     7
 10
2.9722
 20
5.3073
 30
0
 11
3.1667
 21
5.3073
 31
0
  0
LINE
  8
LAYER1
  6
CONTINUOUS
 62
     7
 10
2.9722
 20
5.2795
 30
0
 11
3.1667
 21
5.2795
 31
0
  0
LINE
  8
LAYER1
  6
CONTINUOUS
 62
     7
 10
2.9722
 20
5.2378
 30
0
 11
3.1667
 21
5.2378
 31
0
  0
LINE
  8
LAYER1
  6
CONTINUOUS
 62
     7
 10
2.9722
 20
5.2101
 30
0
 11
3.1667
 21
5.2101
 31
0
  0
LINE
  8
LAYER1
  6
CONTINUOUS
 62
     7
 10
2.9722
 20
5.1823
 30
0
 11
3.1667
 21
5.1823
 31
0
  0
LINE
  8
LAYER1
  6
CONTINUOUS
 62
     7
 10
2.9722
 20
5.1545
 30
0
 11
3.1667
 21
5.1545
 31
0
  0
LINE
  8
LAYER1
  6
CONTINUOUS
 62
     7
 10
2.9722
 20
5.1128
 30
0
 11
3.1667
 21
5.1128
 31
0
  0
LINE
  8
LAYER1
  6
CONTINUOUS
 62
     7
 10
2.9722
 20
5.0851
 30
0
 11
3.1667
 21
5.0851
 31
0
  0
LINE
  8
LAYER1
  6
CONTINUOUS
 62
     7
 10
2.9722
 20
5.0573
 30
0
 11
3.1667
 21
5.0573
 31
0
  0
LINE
  8
LAYER1
  6
CONTINUOUS
 62
     7
 10
2.9861
 20
5.2934
 30
0
 11
3.1389
 21
5.2934
 31
0
  0
LINE
  8
LAYER1
  6
CONTINUOUS
 62
     7
 10
2.9861
 20
5.2656
 30
0
 11
3.1389
 21
5.2656
 31
0
  0
LINE
  8
LAYER1
  6
CONTINUOUS
 62
     7
 10
2.9861
 20
5.2239
 30
0
 11
3.1389
 21
5.2239
 31
0
  0
LINE
  8
LAYER1
  6
CONTINUOUS
 62
     7
 10
2.9861
 20
5.1962
 30
0
 11
3.1389
 21
5.1962
 31
0
  0
LINE
  8
LAYER1
  6
CONTINUOUS
 62
     7
 10
2.9861
 20
5.1684
 30
0
 11
3.1389
 21
5.1684
 31
0
  0
LINE
  8
LAYER1
  6
CONTINUOUS
 62
     7
 10
2.9861
 20
5.1267
 30
0
 11
3.1389
 21
5.1267
 31
0
  0
LINE
  8
LAYER1
  6
CONTINUOUS
 62
     7
 10
2.9861
 20
5.0989
 30
0
 11
3.1389
 21
5.0989
 31
0
  0
LINE
  8
LAYER1
  6
CONTINUOUS
 62
     7
 10
2.9861
 20
5.0712
 30
0
 11
3.1389
 21
5.0712
 31
0
  0
LINE
  8
LAYER1
  6
CONTINUOUS
 62
     7
 10
2.9861
 20
5.0434
 30
0
 11
3.1389
 21
5.0434
 31
0
  0
LINE
  8
LAYER1
  6
CONTINUOUS
 62
     7
 10
2.9722
 20
5.0295
 30
0
 11
3.1667
 21
5.0295
 31
0
  0
LINE
  8
LAYER1
  6
CONTINUOUS
 62
     7
 10
2.9861
 20
5.0017
 30
0
 11
3.1389
 21
5.0017
 31
0
  0
LINE
  8
LAYER1
  6
CONTINUOUS
 62
     7
 10
2.9722
 20
4.9878
 30
0
 11
3.1667
 21
4.9878
 31
0
  0
LINE
  8
LAYER1
  6
CONTINUOUS
 62
     7
 10
2.9861
 20
4.9739
 30
0
 11
3.1389
 21
4.9739
 31
0
  0
LINE
  8
LAYER1
  6
CONTINUOUS
 62
     7
 10
2.9722
 20
4.9601
 30
0
 11
3.1667
 21
4.9601
 31
0
  0
LINE
  8
LAYER1
  6
CONTINUOUS
 62
     7
 10
2.9861
 20
4.9462
 30
0
 11
3.1389
 21
4.9462
 31
0
  0
LINE
  8
LAYER1
  6
CONTINUOUS
 62
     7
 10
2.9722
 20
4.9323
 30
0
 11
3.1667
 21
4.9323
 31
0
  0
LINE
  8
LAYER1
  6
CONTINUOUS
 62
     7
 10
2.9861
 20
4.9184
 30
0
 11
3.1389
 21
4.9184
 31
0
  0
LINE
  8
LAYER1
  6
CONTINUOUS
 62
     7
 10
2.9722
 20
4.8906
 30
0
 11
3.1667
 21
4.8906
 31
0
  0
LINE
  8
LAYER1
  6
CONTINUOUS
 62
     7
 10
2.9861
 20
4.8767
 30
0
 11
3.1389
 21
4.8767
 31
0
  0
LINE
  8
LAYER1
  6
CONTINUOUS
 62
     7
 10
2.9722
 20
4.8628
 30
0
 11
2.9722
 21
5.3073
 31
0
  0
ENDBLK
  8
LAYER1
  0
BLOCK
  8
LAYER1
  2
Group107
 70
     0
 10
0
 20
0
 30
0
  0
POLYLINE
  8
LAYER1
  6
CONTINUOUS
 62
     7
 66
     1
 70
     0
 40
0.0039
 41
0.0039
  0
VERTEX
  8
LAYER1
 10
2.9722
 20
4.8628
 30
0
 70
     0
  0
VERTEX
  8
LAYER1
 10
3.1667
 20
4.8628
 30
0
 70
     0
  0
VERTEX
  8
LAYER1
 10
3.1667
 20
5.3073
 30
0
 70
     0
  0
SEQEND
  0
LINE
  8
LAYER1
  6
CONTINUOUS
 62
     7
 10
2.9722
 20
4.8628
 30
0
 11
2.875
 21
4.7656
 31
0
  0
LINE
  8
LAYER1
  6
CONTINUOUS
 62
     7
 10
3.1667
 20
4.8628
 30
0
 11
3.25
 21
4.7656
 31
0
  0
POLYLINE
  8
LAYER1
  6
CONTINUOUS
 62
     7
 66
     1
 70
     0
 40
0.0039
 41
0.0039
  0
VERTEX
  8
LAYER1
 10
3.0417
 20
4.7101
 30
0
 70
     0
  0
VERTEX
  8
LAYER1
 10
3.0417
 20
4.8073
 30
0
 70
     0
  0
VERTEX
  8
LAYER1
 10
3.0972
 20
4.8073
 30
0
 70
     0
  0
VERTEX
  8
LAYER1
 10
3.0972
 20
4.7101
 30
0
 70
     0
  0
SEQEND
  0
LINE
  8
LAYER1
  6
CONTINUOUS
 62
     7
 10
3.25
 20
4.7656
 30
0
 11
3.0972
 21
4.7656
 31
0
  0
LINE
  8
LAYER1
  6
CONTINUOUS
 62
     7
 10
3.0417
 20
4.7656
 30
0
 11
2.875
 21
4.7656
 31
0
  0
POLYLINE
  8
LAYER1
  6
CONTINUOUS
 62
     7
 66
     1
 70
     0
 40
0.0039
 41
0.0039
  0
VERTEX
  8
LAYER1
 10
3.0278
 20
4.7101
 30
0
 70
     0
  0
VERTEX
  8
LAYER1
 10
3.0139
 20
4.7101
 30
0
 70
     0
  0
VERTEX
  8
LAYER1
 10
2.9722
 20
4.7101
 30
0
 70
     0
  0
VERTEX
  8
LAYER1
 10
2.9306
 20
4.7239
 30
0
 70
     0
  0
VERTEX
  8
LAYER1
 10
2.8889
 20
4.7517
 30
0
 70
     0
  0
VERTEX
  8
LAYER1
 10
2.875
 20
4.7656
 30
0
 70
     0
  0
SEQEND
  0
POLYLINE
  8
LAYER1
  6
CONTINUOUS
 62
     7
 66
     1
 70
     0
 40
0.0039
 41
0.0039
  0
VERTEX
  8
LAYER1
 10
3.25
 20
4.7656
 30
0
 70
     0
  0
VERTEX
  8
LAYER1
 10
3.2361
 20
4.7517
 30
0
 70
     0
  0
VERTEX
  8
LAYER1
 10
3.1944
 20
4.7239
 30
0
 70
     0
  0
VERTEX
  8
LAYER1
 10
3.1528
 20
4.7101
 30
0
 70
     0
  0
VERTEX
  8
LAYER1
 10
3.125
 20
4.7101
 30
0
 70
     0
  0
VERTEX
  8
LAYER1
 10
3.0972
 20
4.7101
 30
0
 70
     0
  0
SEQEND
  0
ENDBLK
  8
LAYER1
  0
BLOCK
  8
LAYER1
  2
Group108
 70
     0
 10
0
 20
0
 30
0
  0
INSERT
  8
LAYER1
  2
Group106
 10
0
 20
0
 30
0
  0
INSERT
  8
LAYER1
  2
Group107
 10
0
 20
0
 30
0
  0
ENDBLK
  8
LAYER1
  0
BLOCK
  8
LAYER1
  2
Group109
 70
     0
 10
0
 20
0
 30
0
  0
POLYLINE
  8
LAYER1
  6
CONTINUOUS
 62
     7
 66
     1
 70
     0
 40
0.0039
 41
0.0039
  0
VERTEX
  8
LAYER1
 10
2.9722
 20
6.1823
 30
0
 70
     0
  0
VERTEX
  8
LAYER1
 10
3
 20
6.2239
 30
0
 70
     0
  0
VERTEX
  8
LAYER1
 10
3.1389
 20
6.2239
 30
0
 70
     0
  0
SEQEND
  0
LINE
  8
LAYER1
  6
CONTINUOUS
 62
     7
 10
3.1667
 20
6.1823
 30
0
 11
3.1389
 21
6.2239
 31
0
  0
LINE
  8
LAYER1
  6
CONTINUOUS
 62
     7
 10
2.9722
 20
6.1823
 30
0
 11
3.1667
 21
6.1823
 31
0
  0
LINE
  8
LAYER1
  6
CONTINUOUS
 62
     7
 10
2.9722
 20
6.1545
 30
0
 11
3.1667
 21
6.1545
 31
0
  0
LINE
  8
LAYER1
  6
CONTINUOUS
 62
     7
 10
2.9722
 20
6.1267
 30
0
 11
3.1667
 21
6.1267
 31
0
  0
LINE
  8
LAYER1
  6
CONTINUOUS
 62
     7
 10
2.9722
 20
6.0989
 30
0
 11
3.1667
 21
6.0989
 31
0
  0
LINE
  8
LAYER1
  6
CONTINUOUS
 62
     7
 10
2.9722
 20
6.0573
 30
0
 11
3.1667
 21
6.0573
 31
0
  0
LINE
  8
LAYER1
  6
CONTINUOUS
 62
     7
 10
2.9722
 20
6.0295
 30
0
 11
3.1667
 21
6.0295
 31
0
  0
LINE
  8
LAYER1
  6
CONTINUOUS
 62
     7
 10
2.9722
 20
6.0017
 30
0
 11
3.1667
 21
6.0017
 31
0
  0
LINE
  8
LAYER1
  6
CONTINUOUS
 62
     7
 10
2.9722
 20
5.9601
 30
0
 11
3.1667
 21
5.9601
 31
0
  0
LINE
  8
LAYER1
  6
CONTINUOUS
 62
     7
 10
2.9722
 20
5.9323
 30
0
 11
3.1667
 21
5.9323
 31
0
  0
LINE
  8
LAYER1
  6
CONTINUOUS
 62
     7
 10
2.9861
 20
6.1684
 30
0
 11
3.1389
 21
6.1684
 31
0
  0
LINE
  8
LAYER1
  6
CONTINUOUS
 62
     7
 10
2.9861
 20
6.1406
 30
0
 11
3.1389
 21
6.1406
 31
0
  0
LINE
  8
LAYER1
  6
CONTINUOUS
 62
     7
 10
2.9861
 20
6.1128
 30
0
 11
3.1389
 21
6.1128
 31
0
  0
LINE
  8
LAYER1
  6
CONTINUOUS
 62
     7
 10
2.9861
 20
6.0712
 30
0
 11
3.1389
 21
6.0712
 31
0
  0
LINE
  8
LAYER1
  6
CONTINUOUS
 62
     7
 10
2.9861
 20
6.0434
 30
0
 11
3.1389
 21
6.0434
 31
0
  0
LINE
  8
LAYER1
  6
CONTINUOUS
 62
     7
 10
2.9861
 20
6.0156
 30
0
 11
3.1389
 21
6.0156
 31
0
  0
LINE
  8
LAYER1
  6
CONTINUOUS
 62
     7
 10
2.9861
 20
5.9878
 30
0
 11
3.1389
 21
5.9878
 31
0
  0
LINE
  8
LAYER1
  6
CONTINUOUS
 62
     7
 10
2.9861
 20
5.9462
 30
0
 11
3.1389
 21
5.9462
 31
0
  0
LINE
  8
LAYER1
  6
CONTINUOUS
 62
     7
 10
2.9861
 20
5.9184
 30
0
 11
3.1389
 21
5.9184
 31
0
  0
LINE
  8
LAYER1
  6
CONTINUOUS
 62
     7
 10
2.9722
 20
5.9045
 30
0
 11
3.1667
 21
5.9045
 31
0
  0
LINE
  8
LAYER1
  6
CONTINUOUS
 62
     7
 10
2.9861
 20
5.8906
 30
0
 11
3.1389
 21
5.8906
 31
0
  0
LINE
  8
LAYER1
  6
CONTINUOUS
 62
     7
 10
2.9722
 20
5.8767
 30
0
 11
3.1667
 21
5.8767
 31
0
  0
LINE
  8
LAYER1
  6
CONTINUOUS
 62
     7
 10
2.9861
 20
5.8628
 30
0
 11
3.1389
 21
5.8628
 31
0
  0
LINE
  8
LAYER1
  6
CONTINUOUS
 62
     7
 10
2.9722
 20
5.8351
 30
0
 11
3.1667
 21
5.8351
 31
0
  0
LINE
  8
LAYER1
  6
CONTINUOUS
 62
     7
 10
2.9861
 20
5.8212
 30
0
 11
3.1389
 21
5.8212
 31
0
  0
LINE
  8
LAYER1
  6
CONTINUOUS
 62
     7
 10
2.9722
 20
5.8073
 30
0
 11
3.1667
 21
5.8073
 31
0
  0
LINE
  8
LAYER1
  6
CONTINUOUS
 62
     7
 10
2.9861
 20
5.7934
 30
0
 11
3.1389
 21
5.7934
 31
0
  0
LINE
  8
LAYER1
  6
CONTINUOUS
 62
     7
 10
2.9722
 20
5.7795
 30
0
 11
3.1667
 21
5.7795
 31
0
  0
LINE
  8
LAYER1
  6
CONTINUOUS
 62
     7
 10
2.9861
 20
5.7656
 30
0
 11
3.1389
 21
5.7656
 31
0
  0
LINE
  8
LAYER1
  6
CONTINUOUS
 62
     7
 10
2.9722
 20
5.7517
 30
0
 11
3.1667
 21
5.7517
 31
0
  0
LINE
  8
LAYER1
  6
CONTINUOUS
 62
     7
 10
2.9861
 20
5.7239
 30
0
 11
3.1389
 21
5.7239
 31
0
  0
LINE
  8
LAYER1
  6
CONTINUOUS
 62
     7
 10
2.9722
 20
5.7101
 30
0
 11
3.1667
 21
5.7101
 31
0
  0
LINE
  8
LAYER1
  6
CONTINUOUS
 62
     7
 10
2.9861
 20
5.6962
 30
0
 11
3.1389
 21
5.6962
 31
0
  0
LINE
  8
LAYER1
  6
CONTINUOUS
 62
     7
 10
2.9722
 20
5.6823
 30
0
 11
3.1667
 21
5.6823
 31
0
  0
LINE
  8
LAYER1
  6
CONTINUOUS
 62
     7
 10
2.9722
 20
5.6684
 30
0
 11
2.9722
 21
6.1823
 31
0
  0
ENDBLK
  8
LAYER1
  0
BLOCK
  8
LAYER1
  2
Group110
 70
     0
 10
0
 20
0
 30
0
  0
POLYLINE
  8
LAYER1
  6
CONTINUOUS
 62
     7
 66
     1
 70
     0
 40
0.0039
 41
0.0039
  0
VERTEX
  8
LAYER1
 10
2.9722
 20
5.6684
 30
0
 70
     0
  0
VERTEX
  8
LAYER1
 10
3.1667
 20
5.6684
 30
0
 70
     0
  0
VERTEX
  8
LAYER1
 10
3.1667
 20
6.1823
 30
0
 70
     0
  0
SEQEND
  0
LINE
  8
LAYER1
  6
CONTINUOUS
 62
     7
 10
2.9722
 20
5.6684
 30
0
 11
2.875
 21
5.5573
 31
0
  0
LINE
  8
LAYER1
  6
CONTINUOUS
 62
     7
 10
3.1667
 20
5.6684
 30
0
 11
3.25
 21
5.5573
 31
0
  0
POLYLINE
  8
LAYER1
  6
CONTINUOUS
 62
     7
 66
     1
 70
     0
 40
0.0039
 41
0.0039
  0
VERTEX
  8
LAYER1
 10
3.0417
 20
5.5017
 30
0
 70
     0
  0
VERTEX
  8
LAYER1
 10
3.0417
 20
5.6128
 30
0
 70
     0
  0
VERTEX
  8
LAYER1
 10
3.0972
 20
5.6128
 30
0
 70
     0
  0
VERTEX
  8
LAYER1
 10
3.0972
 20
5.5017
 30
0
 70
     0
  0
SEQEND
  0
LINE
  8
LAYER1
  6
CONTINUOUS
 62
     7
 10
3.25
 20
5.5573
 30
0
 11
3.0972
 21
5.5573
 31
0
  0
LINE
  8
LAYER1
  6
CONTINUOUS
 62
     7
 10
3.0417
 20
5.5573
 30
0
 11
2.875
 21
5.5573
 31
0
  0
POLYLINE
  8
LAYER1
  6
CONTINUOUS
 62
     7
 66
     1
 70
     0
 40
0.0039
 41
0.0039
  0
VERTEX
  8
LAYER1
 10
3.0278
 20
5.5017
 30
0
 70
     0
  0
VERTEX
  8
LAYER1
 10
2.9861
 20
5.5017
 30
0
 70
     0
  0
VERTEX
  8
LAYER1
 10
2.9167
 20
5.5295
 30
0
 70
     0
  0
VERTEX
  8
LAYER1
 10
2.875
 20
5.5573
 30
0
 70
     0
  0
SEQEND
  0
POLYLINE
  8
LAYER1
  6
CONTINUOUS
 62
     7
 66
     1
 70
     0
 40
0.0039
 41
0.0039
  0
VERTEX
  8
LAYER1
 10
3.25
 20
5.5573
 30
0
 70
     0
  0
VERTEX
  8
LAYER1
 10
3.2083
 20
5.5295
 30
0
 70
     0
  0
VERTEX
  8
LAYER1
 10
3.1389
 20
5.5017
 30
0
 70
     0
  0
VERTEX
  8
LAYER1
 10
3.0972
 20
5.5017
 30
0
 70
     0
  0
SEQEND
  0
ENDBLK
  8
LAYER1
  0
BLOCK
  8
LAYER1
  2
Group111
 70
     0
 10
0
 20
0
 30
0
  0
INSERT
  8
LAYER1
  2
Group109
 10
0
 20
0
 30
0
  0
INSERT
  8
LAYER1
  2
Group110
 10
0
 20
0
 30
0
  0
ENDBLK
  8
LAYER1
  0
BLOCK
  8
LAYER1
  2
Group112
 70
     0
 10
0
 20
0
 30
0
  0
LINE
  8
LAYER1
  6
CONTINUOUS
 62
     7
 10
3.1667
 20
6.6406
 30
0
 11
3.1667
 21
7.2378
 31
0
  0
LINE
  8
LAYER1
  6
CONTINUOUS
 62
     7
 10
2.9722
 20
7.2378
 30
0
 11
3.1667
 21
7.2378
 31
0
  0
LINE
  8
LAYER1
  6
CONTINUOUS
 62
     7
 10
2.9722
 20
7.1962
 30
0
 11
3.1667
 21
7.1962
 31
0
  0
LINE
  8
LAYER1
  6
CONTINUOUS
 62
     7
 10
2.9722
 20
7.1684
 30
0
 11
3.1667
 21
7.1684
 31
0
  0
LINE
  8
LAYER1
  6
CONTINUOUS
 62
     7
 10
2.9722
 20
7.1406
 30
0
 11
3.1667
 21
7.1406
 31
0
  0
LINE
  8
LAYER1
  6
CONTINUOUS
 62
     7
 10
2.9722
 20
7.0989
 30
0
 11
3.1667
 21
7.0989
 31
0
  0
LINE
  8
LAYER1
  6
CONTINUOUS
 62
     7
 10
2.9722
 20
7.0712
 30
0
 11
3.1667
 21
7.0712
 31
0
  0
LINE
  8
LAYER1
  6
CONTINUOUS
 62
     7
 10
2.9722
 20
7.0434
 30
0
 11
3.1667
 21
7.0434
 31
0
  0
LINE
  8
LAYER1
  6
CONTINUOUS
 62
     7
 10
2.9722
 20
7.0156
 30
0
 11
3.1667
 21
7.0156
 31
0
  0
LINE
  8
LAYER1
  6
CONTINUOUS
 62
     7
 10
2.9722
 20
6.9739
 30
0
 11
3.1667
 21
6.9739
 31
0
  0
LINE
  8
LAYER1
  6
CONTINUOUS
 62
     7
 10
2.9861
 20
7.2101
 30
0
 11
3.1389
 21
7.2101
 31
0
  0
LINE
  8
LAYER1
  6
CONTINUOUS
 62
     7
 10
2.9861
 20
7.1823
 30
0
 11
3.1389
 21
7.1823
 31
0
  0
LINE
  8
LAYER1
  6
CONTINUOUS
 62
     7
 10
2.9861
 20
7.1545
 30
0
 11
3.1389
 21
7.1545
 31
0
  0
LINE
  8
LAYER1
  6
CONTINUOUS
 62
     7
 10
2.9861
 20
7.1267
 30
0
 11
3.1389
 21
7.1267
 31
0
  0
LINE
  8
LAYER1
  6
CONTINUOUS
 62
     7
 10
2.9861
 20
7.0851
 30
0
 11
3.1389
 21
7.0851
 31
0
  0
LINE
  8
LAYER1
  6
CONTINUOUS
 62
     7
 10
2.9861
 20
7.0573
 30
0
 11
3.1389
 21
7.0573
 31
0
  0
LINE
  8
LAYER1
  6
CONTINUOUS
 62
     7
 10
2.9861
 20
7.0295
 30
0
 11
3.1389
 21
7.0295
 31
0
  0
LINE
  8
LAYER1
  6
CONTINUOUS
 62
     7
 10
2.9861
 20
7.0017
 30
0
 11
3.1389
 21
7.0017
 31
0
  0
LINE
  8
LAYER1
  6
CONTINUOUS
 62
     7
 10
2.9861
 20
6.9601
 30
0
 11
3.1389
 21
6.9601
 31
0
  0
LINE
  8
LAYER1
  6
CONTINUOUS
 62
     7
 10
2.9722
 20
6.9462
 30
0
 11
3.1667
 21
6.9462
 31
0
  0
LINE
  8
LAYER1
  6
CONTINUOUS
 62
     7
 10
2.9861
 20
6.9323
 30
0
 11
3.1389
 21
6.9323
 31
0
  0
LINE
  8
LAYER1
  6
CONTINUOUS
 62
     7
 10
2.9722
 20
6.9184
 30
0
 11
3.1667
 21
6.9184
 31
0
  0
LINE
  8
LAYER1
  6
CONTINUOUS
 62
     7
 10
2.9861
 20
6.9045
 30
0
 11
3.1389
 21
6.9045
 31
0
  0
LINE
  8
LAYER1
  6
CONTINUOUS
 62
     7
 10
2.9722
 20
6.8906
 30
0
 11
3.1667
 21
6.8906
 31
0
  0
LINE
  8
LAYER1
  6
CONTINUOUS
 62
     7
 10
2.9861
 20
6.8628
 30
0
 11
3.1389
 21
6.8628
 31
0
  0
LINE
  8
LAYER1
  6
CONTINUOUS
 62
     7
 10
2.9722
 20
6.8489
 30
0
 11
3.1667
 21
6.8489
 31
0
  0
LINE
  8
LAYER1
  6
CONTINUOUS
 62
     7
 10
2.9861
 20
6.8351
 30
0
 11
3.1389
 21
6.8351
 31
0
  0
LINE
  8
LAYER1
  6
CONTINUOUS
 62
     7
 10
2.9722
 20
6.8212
 30
0
 11
3.1667
 21
6.8212
 31
0
  0
LINE
  8
LAYER1
  6
CONTINUOUS
 62
     7
 10
2.9861
 20
6.8073
 30
0
 11
3.1389
 21
6.8073
 31
0
  0
LINE
  8
LAYER1
  6
CONTINUOUS
 62
     7
 10
2.9722
 20
6.7934
 30
0
 11
3.1667
 21
6.7934
 31
0
  0
LINE
  8
LAYER1
  6
CONTINUOUS
 62
     7
 10
2.9861
 20
6.7795
 30
0
 11
3.1389
 21
6.7795
 31
0
  0
LINE
  8
LAYER1
  6
CONTINUOUS
 62
     7
 10
2.9722
 20
6.7517
 30
0
 11
3.1667
 21
6.7517
 31
0
  0
LINE
  8
LAYER1
  6
CONTINUOUS
 62
     7
 10
2.9861
 20
6.7378
 30
0
 11
3.1389
 21
6.7378
 31
0
  0
LINE
  8
LAYER1
  6
CONTINUOUS
 62
     7
 10
2.9722
 20
6.7239
 30
0
 11
3.1667
 21
6.7239
 31
0
  0
LINE
  8
LAYER1
  6
CONTINUOUS
 62
     7
 10
2.9861
 20
6.7101
 30
0
 11
3.1389
 21
6.7101
 31
0
  0
LINE
  8
LAYER1
  6
CONTINUOUS
 62
     7
 10
2.9722
 20
6.6962
 30
0
 11
3.1667
 21
6.6962
 31
0
  0
LINE
  8
LAYER1
  6
CONTINUOUS
 62
     7
 10
2.9861
 20
6.6823
 30
0
 11
3.1389
 21
6.6823
 31
0
  0
LINE
  8
LAYER1
  6
CONTINUOUS
 62
     7
 10
2.9722
 20
6.6684
 30
0
 11
3.1667
 21
6.6684
 31
0
  0
ENDBLK
  8
LAYER1
  0
BLOCK
  8
LAYER1
  2
Group113
 70
     0
 10
0
 20
0
 30
0
  0
POLYLINE
  8
LAYER1
  6
CONTINUOUS
 62
     7
 66
     1
 70
     0
 40
0.0039
 41
0.0039
  0
VERTEX
  8
LAYER1
 10
2.9722
 20
7.2378
 30
0
 70
     0
  0
VERTEX
  8
LAYER1
 10
3
 20
7.2656
 30
0
 70
     0
  0
VERTEX
  8
LAYER1
 10
3.1389
 20
7.2656
 30
0
 70
     0
  0
SEQEND
  0
LINE
  8
LAYER1
  6
CONTINUOUS
 62
     7
 10
3.1667
 20
7.2378
 30
0
 11
3.1389
 21
7.2656
 31
0
  0
LINE
  8
LAYER1
  6
CONTINUOUS
 62
     7
 10
2.9722
 20
6.6406
 30
0
 11
3.1667
 21
6.6406
 31
0
  0
LINE
  8
LAYER1
  6
CONTINUOUS
 62
     7
 10
2.9722
 20
6.6406
 30
0
 11
2.9722
 21
7.2378
 31
0
  0
INSERT
  8
LAYER1
  2
Group112
 10
0
 20
0
 30
0
  0
ENDBLK
  8
LAYER1
  0
BLOCK
  8
LAYER1
  2
Group114
 70
     0
 10
0
 20
0
 30
0
  0
LINE
  8
LAYER1
  6
CONTINUOUS
 62
     7
 10
2.9861
 20
6.6545
 30
0
 11
3.1389
 21
6.6545
 31
0
  0
LINE
  8
LAYER1
  6
CONTINUOUS
 62
     7
 10
2.9722
 20
6.6406
 30
0
 11
2.875
 21
6.5295
 31
0
  0
LINE
  8
LAYER1
  6
CONTINUOUS
 62
     7
 10
3.1667
 20
6.6406
 30
0
 11
3.25
 21
6.5295
 31
0
  0
POLYLINE
  8
LAYER1
  6
CONTINUOUS
 62
     7
 66
     1
 70
     0
 40
0.0039
 41
0.0039
  0
VERTEX
  8
LAYER1
 10
3.0417
 20
6.4739
 30
0
 70
     0
  0
VERTEX
  8
LAYER1
 10
3.0417
 20
6.5712
 30
0
 70
     0
  0
VERTEX
  8
LAYER1
 10
3.0972
 20
6.5712
 30
0
 70
     0
  0
VERTEX
  8
LAYER1
 10
3.0972
 20
6.4739
 30
0
 70
     0
  0
SEQEND
  0
LINE
  8
LAYER1
  6
CONTINUOUS
 62
     7
 10
3.25
 20
6.5295
 30
0
 11
3.0972
 21
6.5295
 31
0
  0
LINE
  8
LAYER1
  6
CONTINUOUS
 62
     7
 10
3.0417
 20
6.5295
 30
0
 11
2.875
 21
6.5295
 31
0
  0
POLYLINE
  8
LAYER1
  6
CONTINUOUS
 62
     7
 66
     1
 70
     0
 40
0.0039
 41
0.0039
  0
VERTEX
  8
LAYER1
 10
3.0278
 20
6.4739
 30
0
 70
     0
  0
VERTEX
  8
LAYER1
 10
2.9861
 20
6.4739
 30
0
 70
     0
  0
VERTEX
  8
LAYER1
 10
2.9167
 20
6.5017
 30
0
 70
     0
  0
VERTEX
  8
LAYER1
 10
2.875
 20
6.5295
 30
0
 70
     0
  0
SEQEND
  0
POLYLINE
  8
LAYER1
  6
CONTINUOUS
 62
     7
 66
     1
 70
     0
 40
0.0039
 41
0.0039
  0
VERTEX
  8
LAYER1
 10
3.25
 20
6.5295
 30
0
 70
     0
  0
VERTEX
  8
LAYER1
 10
3.2083
 20
6.5017
 30
0
 70
     0
  0
VERTEX
  8
LAYER1
 10
3.1389
 20
6.4739
 30
0
 70
     0
  0
VERTEX
  8
LAYER1
 10
3.0972
 20
6.4739
 30
0
 70
     0
  0
SEQEND
  0
ENDBLK
  8
LAYER1
  0
BLOCK
  8
LAYER1
  2
Group115
 70
     0
 10
0
 20
0
 30
0
  0
INSERT
  8
LAYER1
  2
Group113
 10
0
 20
0
 30
0
  0
INSERT
  8
LAYER1
  2
Group114
 10
0
 20
0
 30
0
  0
ENDBLK
  8
LAYER1
  0
BLOCK
  8
LAYER1
  2
Group116
 70
     0
 10
0
 20
0
 30
0
  0
LINE
  8
LAYER1
  6
CONTINUOUS
 62
     7
 10
3.1667
 20
7.6267
 30
0
 11
3.1667
 21
8.3767
 31
0
  0
LINE
  8
LAYER1
  6
CONTINUOUS
 62
     7
 10
2.9722
 20
8.3767
 30
0
 11
3.1667
 21
8.3767
 31
0
  0
LINE
  8
LAYER1
  6
CONTINUOUS
 62
     7
 10
2.9722
 20
8.3489
 30
0
 11
3.1667
 21
8.3489
 31
0
  0
LINE
  8
LAYER1
  6
CONTINUOUS
 62
     7
 10
2.9722
 20
8.3212
 30
0
 11
3.1667
 21
8.3212
 31
0
  0
LINE
  8
LAYER1
  6
CONTINUOUS
 62
     7
 10
2.9722
 20
8.2795
 30
0
 11
3.1667
 21
8.2795
 31
0
  0
LINE
  8
LAYER1
  6
CONTINUOUS
 62
     7
 10
2.9722
 20
8.2517
 30
0
 11
3.1667
 21
8.2517
 31
0
  0
LINE
  8
LAYER1
  6
CONTINUOUS
 62
     7
 10
2.9722
 20
8.2239
 30
0
 11
3.1667
 21
8.2239
 31
0
  0
LINE
  8
LAYER1
  6
CONTINUOUS
 62
     7
 10
2.9722
 20
8.1962
 30
0
 11
3.1667
 21
8.1962
 31
0
  0
LINE
  8
LAYER1
  6
CONTINUOUS
 62
     7
 10
2.9722
 20
8.1545
 30
0
 11
3.1667
 21
8.1545
 31
0
  0
LINE
  8
LAYER1
  6
CONTINUOUS
 62
     7
 10
2.9722
 20
8.1267
 30
0
 11
3.1667
 21
8.1267
 31
0
  0
LINE
  8
LAYER1
  6
CONTINUOUS
 62
     7
 10
2.9861
 20
8.3628
 30
0
 11
3.1389
 21
8.3628
 31
0
  0
LINE
  8
LAYER1
  6
CONTINUOUS
 62
     7
 10
2.9861
 20
8.3351
 30
0
 11
3.1389
 21
8.3351
 31
0
  0
LINE
  8
LAYER1
  6
CONTINUOUS
 62
     7
 10
2.9861
 20
8.3073
 30
0
 11
3.1389
 21
8.3073
 31
0
  0
LINE
  8
LAYER1
  6
CONTINUOUS
 62
     7
 10
2.9861
 20
8.2656
 30
0
 11
3.1389
 21
8.2656
 31
0
  0
LINE
  8
LAYER1
  6
CONTINUOUS
 62
     7
 10
2.9861
 20
8.2378
 30
0
 11
3.1389
 21
8.2378
 31
0
  0
LINE
  8
LAYER1
  6
CONTINUOUS
 62
     7
 10
2.9861
 20
8.2101
 30
0
 11
3.1389
 21
8.2101
 31
0
  0
LINE
  8
LAYER1
  6
CONTINUOUS
 62
     7
 10
2.9861
 20
8.1684
 30
0
 11
3.1389
 21
8.1684
 31
0
  0
LINE
  8
LAYER1
  6
CONTINUOUS
 62
     7
 10
2.9861
 20
8.1406
 30
0
 11
3.1389
 21
8.1406
 31
0
  0
LINE
  8
LAYER1
  6
CONTINUOUS
 62
     7
 10
2.9861
 20
8.1128
 30
0
 11
3.1389
 21
8.1128
 31
0
  0
LINE
  8
LAYER1
  6
CONTINUOUS
 62
     7
 10
2.9722
 20
8.0989
 30
0
 11
3.1667
 21
8.0989
 31
0
  0
LINE
  8
LAYER1
  6
CONTINUOUS
 62
     7
 10
2.9861
 20
8.0851
 30
0
 11
3.1389
 21
8.0851
 31
0
  0
LINE
  8
LAYER1
  6
CONTINUOUS
 62
     7
 10
2.9722
 20
8.0712
 30
0
 11
3.1667
 21
8.0712
 31
0
  0
LINE
  8
LAYER1
  6
CONTINUOUS
 62
     7
 10
2.9861
 20
8.0434
 30
0
 11
3.1389
 21
8.0434
 31
0
  0
LINE
  8
LAYER1
  6
CONTINUOUS
 62
     7
 10
2.9722
 20
8.0295
 30
0
 11
3.1667
 21
8.0295
 31
0
  0
LINE
  8
LAYER1
  6
CONTINUOUS
 62
     7
 10
2.9861
 20
8.0156
 30
0
 11
3.1389
 21
8.0156
 31
0
  0
LINE
  8
LAYER1
  6
CONTINUOUS
 62
     7
 10
2.9722
 20
8.0017
 30
0
 11
3.1667
 21
8.0017
 31
0
  0
LINE
  8
LAYER1
  6
CONTINUOUS
 62
     7
 10
2.9861
 20
7.9878
 30
0
 11
3.1389
 21
7.9878
 31
0
  0
LINE
  8
LAYER1
  6
CONTINUOUS
 62
     7
 10
2.9722
 20
7.9739
 30
0
 11
3.1667
 21
7.9739
 31
0
  0
LINE
  8
LAYER1
  6
CONTINUOUS
 62
     7
 10
2.9861
 20
7.9601
 30
0
 11
3.1389
 21
7.9601
 31
0
  0
LINE
  8
LAYER1
  6
CONTINUOUS
 62
     7
 10
2.9722
 20
7.9323
 30
0
 11
3.1667
 21
7.9323
 31
0
  0
LINE
  8
LAYER1
  6
CONTINUOUS
 62
     7
 10
2.9861
 20
7.9184
 30
0
 11
3.1389
 21
7.9184
 31
0
  0
LINE
  8
LAYER1
  6
CONTINUOUS
 62
     7
 10
2.9722
 20
7.9045
 30
0
 11
3.1667
 21
7.9045
 31
0
  0
LINE
  8
LAYER1
  6
CONTINUOUS
 62
     7
 10
2.9861
 20
7.8906
 30
0
 11
3.1389
 21
7.8906
 31
0
  0
LINE
  8
LAYER1
  6
CONTINUOUS
 62
     7
 10
2.9722
 20
7.8767
 30
0
 11
3.1667
 21
7.8767
 31
0
  0
LINE
  8
LAYER1
  6
CONTINUOUS
 62
     7
 10
2.9861
 20
7.8628
 30
0
 11
3.1389
 21
7.8628
 31
0
  0
LINE
  8
LAYER1
  6
CONTINUOUS
 62
     7
 10
2.9722
 20
7.8489
 30
0
 11
3.1667
 21
7.8489
 31
0
  0
LINE
  8
LAYER1
  6
CONTINUOUS
 62
     7
 10
2.9861
 20
7.8351
 30
0
 11
3.1389
 21
7.8351
 31
0
  0
LINE
  8
LAYER1
  6
CONTINUOUS
 62
     7
 10
2.9722
 20
7.8073
 30
0
 11
3.1667
 21
7.8073
 31
0
  0
LINE
  8
LAYER1
  6
CONTINUOUS
 62
     7
 10
2.9861
 20
7.7934
 30
0
 11
3.1389
 21
7.7934
 31
0
  0
LINE
  8
LAYER1
  6
CONTINUOUS
 62
     7
 10
2.9722
 20
7.7795
 30
0
 11
3.1667
 21
7.7795
 31
0
  0
LINE
  8
LAYER1
  6
CONTINUOUS
 62
     7
 10
2.9861
 20
7.7656
 30
0
 11
3.1389
 21
7.7656
 31
0
  0
LINE
  8
LAYER1
  6
CONTINUOUS
 62
     7
 10
2.9722
 20
7.7517
 30
0
 11
3.1667
 21
7.7517
 31
0
  0
LINE
  8
LAYER1
  6
CONTINUOUS
 62
     7
 10
2.9861
 20
7.7378
 30
0
 11
3.1389
 21
7.7378
 31
0
  0
LINE
  8
LAYER1
  6
CONTINUOUS
 62
     7
 10
2.9722
 20
7.7239
 30
0
 11
3.1667
 21
7.7239
 31
0
  0
LINE
  8
LAYER1
  6
CONTINUOUS
 62
     7
 10
2.9861
 20
7.6962
 30
0
 11
3.1389
 21
7.6962
 31
0
  0
LINE
  8
LAYER1
  6
CONTINUOUS
 62
     7
 10
2.9722
 20
7.6823
 30
0
 11
3.1667
 21
7.6823
 31
0
  0
LINE
  8
LAYER1
  6
CONTINUOUS
 62
     7
 10
2.9861
 20
7.6684
 30
0
 11
3.1389
 21
7.6684
 31
0
  0
LINE
  8
LAYER1
  6
CONTINUOUS
 62
     7
 10
2.9722
 20
7.6545
 30
0
 11
3.1667
 21
7.6545
 31
0
  0
ENDBLK
  8
LAYER1
  0
BLOCK
  8
LAYER1
  2
Group117
 70
     0
 10
0
 20
0
 30
0
  0
POLYLINE
  8
LAYER1
  6
CONTINUOUS
 62
     7
 66
     1
 70
     0
 40
0.0039
 41
0.0039
  0
VERTEX
  8
LAYER1
 10
2.9722
 20
8.3767
 30
0
 70
     0
  0
VERTEX
  8
LAYER1
 10
3
 20
8.4184
 30
0
 70
     0
  0
VERTEX
  8
LAYER1
 10
3.1389
 20
8.4184
 30
0
 70
     0
  0
SEQEND
  0
LINE
  8
LAYER1
  6
CONTINUOUS
 62
     7
 10
3.1667
 20
8.3767
 30
0
 11
3.1389
 21
8.4184
 31
0
  0
LINE
  8
LAYER1
  6
CONTINUOUS
 62
     7
 10
2.9722
 20
7.6267
 30
0
 11
3.1667
 21
7.6267
 31
0
  0
LINE
  8
LAYER1
  6
CONTINUOUS
 62
     7
 10
2.9722
 20
7.6267
 30
0
 11
2.9722
 21
8.3767
 31
0
  0
INSERT
  8
LAYER1
  2
Group116
 10
0
 20
0
 30
0
  0
ENDBLK
  8
LAYER1
  0
BLOCK
  8
LAYER1
  2
Group118
 70
     0
 10
0
 20
0
 30
0
  0
LINE
  8
LAYER1
  6
CONTINUOUS
 62
     7
 10
2.9861
 20
7.6406
 30
0
 11
3.1389
 21
7.6406
 31
0
  0
LINE
  8
LAYER1
  6
CONTINUOUS
 62
     7
 10
2.9722
 20
7.6267
 30
0
 11
2.875
 21
7.5156
 31
0
  0
LINE
  8
LAYER1
  6
CONTINUOUS
 62
     7
 10
3.1667
 20
7.6267
 30
0
 11
3.25
 21
7.5156
 31
0
  0
POLYLINE
  8
LAYER1
  6
CONTINUOUS
 62
     7
 66
     1
 70
     0
 40
0.0039
 41
0.0039
  0
VERTEX
  8
LAYER1
 10
3.0417
 20
7.4601
 30
0
 70
     0
  0
VERTEX
  8
LAYER1
 10
3.0417
 20
7.5573
 30
0
 70
     0
  0
VERTEX
  8
LAYER1
 10
3.0972
 20
7.5573
 30
0
 70
     0
  0
VERTEX
  8
LAYER1
 10
3.0972
 20
7.4601
 30
0
 70
     0
  0
SEQEND
  0
LINE
  8
LAYER1
  6
CONTINUOUS
 62
     7
 10
3.25
 20
7.5156
 30
0
 11
3.0972
 21
7.5156
 31
0
  0
LINE
  8
LAYER1
  6
CONTINUOUS
 62
     7
 10
3.0417
 20
7.5156
 30
0
 11
2.875
 21
7.5156
 31
0
  0
POLYLINE
  8
LAYER1
  6
CONTINUOUS
 62
     7
 66
     1
 70
     0
 40
0.0039
 41
0.0039
  0
VERTEX
  8
LAYER1
 10
3.0278
 20
7.4601
 30
0
 70
     0
  0
VERTEX
  8
LAYER1
 10
2.9861
 20
7.4601
 30
0
 70
     0
  0
VERTEX
  8
LAYER1
 10
2.9167
 20
7.4878
 30
0
 70
     0
  0
VERTEX
  8
LAYER1
 10
2.875
 20
7.5156
 30
0
 70
     0
  0
SEQEND
  0
POLYLINE
  8
LAYER1
  6
CONTINUOUS
 62
     7
 66
     1
 70
     0
 40
0.0039
 41
0.0039
  0
VERTEX
  8
LAYER1
 10
3.25
 20
7.5156
 30
0
 70
     0
  0
VERTEX
  8
LAYER1
 10
3.2083
 20
7.4878
 30
0
 70
     0
  0
VERTEX
  8
LAYER1
 10
3.1389
 20
7.4601
 30
0
 70
     0
  0
VERTEX
  8
LAYER1
 10
3.0972
 20
7.4601
 30
0
 70
     0
  0
SEQEND
  0
ENDBLK
  8
LAYER1
  0
BLOCK
  8
LAYER1
  2
Group119
 70
     0
 10
0
 20
0
 30
0
  0
INSERT
  8
LAYER1
  2
Group117
 10
0
 20
0
 30
0
  0
INSERT
  8
LAYER1
  2
Group118
 10
0
 20
0
 30
0
  0
ENDBLK
  8
LAYER1
  0
BLOCK
  8
LAYER1
  2
Group120
 70
     0
 10
0
 20
0
 30
0
  0
LINE
  8
LAYER1
  6
CONTINUOUS
 62
     7
 10
3.1667
 20
8.7934
 30
0
 11
3.1667
 21
9.7101
 31
0
  0
LINE
  8
LAYER1
  6
CONTINUOUS
 62
     7
 10
2.9722
 20
9.6962
 30
0
 11
3.1667
 21
9.6962
 31
0
  0
LINE
  8
LAYER1
  6
CONTINUOUS
 62
     7
 10
2.9722
 20
9.6684
 30
0
 11
3.1667
 21
9.6684
 31
0
  0
LINE
  8
LAYER1
  6
CONTINUOUS
 62
     7
 10
2.9722
 20
9.6406
 30
0
 11
3.1667
 21
9.6406
 31
0
  0
LINE
  8
LAYER1
  6
CONTINUOUS
 62
     7
 10
2.9722
 20
9.5989
 30
0
 11
3.1667
 21
9.5989
 31
0
  0
LINE
  8
LAYER1
  6
CONTINUOUS
 62
     7
 10
2.9722
 20
9.5712
 30
0
 11
3.1667
 21
9.5712
 31
0
  0
LINE
  8
LAYER1
  6
CONTINUOUS
 62
     7
 10
2.9722
 20
9.5434
 30
0
 11
3.1667
 21
9.5434
 31
0
  0
LINE
  8
LAYER1
  6
CONTINUOUS
 62
     7
 10
2.9722
 20
9.5156
 30
0
 11
3.1667
 21
9.5156
 31
0
  0
LINE
  8
LAYER1
  6
CONTINUOUS
 62
     7
 10
2.9722
 20
9.4739
 30
0
 11
3.1667
 21
9.4739
 31
0
  0
LINE
  8
LAYER1
  6
CONTINUOUS
 62
     7
 10
2.9722
 20
9.4462
 30
0
 11
3.1667
 21
9.4462
 31
0
  0
LINE
  8
LAYER1
  6
CONTINUOUS
 62
     7
 10
2.9861
 20
9.6823
 30
0
 11
3.1389
 21
9.6823
 31
0
  0
LINE
  8
LAYER1
  6
CONTINUOUS
 62
     7
 10
2.9861
 20
9.6545
 30
0
 11
3.1389
 21
9.6545
 31
0
  0
LINE
  8
LAYER1
  6
CONTINUOUS
 62
     7
 10
2.9861
 20
9.6267
 30
0
 11
3.1389
 21
9.6267
 31
0
  0
LINE
  8
LAYER1
  6
CONTINUOUS
 62
     7
 10
2.9861
 20
9.5851
 30
0
 11
3.1389
 21
9.5851
 31
0
  0
LINE
  8
LAYER1
  6
CONTINUOUS
 62
     7
 10
2.9861
 20
9.5573
 30
0
 11
3.1389
 21
9.5573
 31
0
  0
LINE
  8
LAYER1
  6
CONTINUOUS
 62
     7
 10
2.9861
 20
9.5295
 30
0
 11
3.1389
 21
9.5295
 31
0
  0
LINE
  8
LAYER1
  6
CONTINUOUS
 62
     7
 10
2.9861
 20
9.4878
 30
0
 11
3.1389
 21
9.4878
 31
0
  0
LINE
  8
LAYER1
  6
CONTINUOUS
 62
     7
 10
2.9861
 20
9.4601
 30
0
 11
3.1389
 21
9.4601
 31
0
  0
LINE
  8
LAYER1
  6
CONTINUOUS
 62
     7
 10
2.9861
 20
9.4323
 30
0
 11
3.1389
 21
9.4323
 31
0
  0
LINE
  8
LAYER1
  6
CONTINUOUS
 62
     7
 10
2.9722
 20
9.4184
 30
0
 11
3.1667
 21
9.4184
 31
0
  0
LINE
  8
LAYER1
  6
CONTINUOUS
 62
     7
 10
2.9861
 20
9.4045
 30
0
 11
3.1389
 21
9.4045
 31
0
  0
LINE
  8
LAYER1
  6
CONTINUOUS
 62
     7
 10
2.9722
 20
9.3906
 30
0
 11
3.1667
 21
9.3906
 31
0
  0
LINE
  8
LAYER1
  6
CONTINUOUS
 62
     7
 10
2.9861
 20
9.3628
 30
0
 11
3.1389
 21
9.3628
 31
0
  0
LINE
  8
LAYER1
  6
CONTINUOUS
 62
     7
 10
2.9722
 20
9.3489
 30
0
 11
3.1667
 21
9.3489
 31
0
  0
LINE
  8
LAYER1
  6
CONTINUOUS
 62
     7
 10
2.9861
 20
9.3351
 30
0
 11
3.1389
 21
9.3351
 31
0
  0
LINE
  8
LAYER1
  6
CONTINUOUS
 62
     7
 10
2.9722
 20
9.3212
 30
0
 11
3.1667
 21
9.3212
 31
0
  0
LINE
  8
LAYER1
  6
CONTINUOUS
 62
     7
 10
2.9861
 20
9.3073
 30
0
 11
3.1389
 21
9.3073
 31
0
  0
LINE
  8
LAYER1
  6
CONTINUOUS
 62
     7
 10
2.9722
 20
9.2934
 30
0
 11
3.1667
 21
9.2934
 31
0
  0
LINE
  8
LAYER1
  6
CONTINUOUS
 62
     7
 10
2.9861
 20
9.2795
 30
0
 11
3.1389
 21
9.2795
 31
0
  0
LINE
  8
LAYER1
  6
CONTINUOUS
 62
     7
 10
2.9722
 20
9.2517
 30
0
 11
3.1667
 21
9.2517
 31
0
  0
LINE
  8
LAYER1
  6
CONTINUOUS
 62
     7
 10
2.9861
 20
9.2378
 30
0
 11
3.1389
 21
9.2378
 31
0
  0
LINE
  8
LAYER1
  6
CONTINUOUS
 62
     7
 10
2.9722
 20
9.2239
 30
0
 11
3.1667
 21
9.2239
 31
0
  0
LINE
  8
LAYER1
  6
CONTINUOUS
 62
     7
 10
2.9861
 20
9.2101
 30
0
 11
3.1389
 21
9.2101
 31
0
  0
LINE
  8
LAYER1
  6
CONTINUOUS
 62
     7
 10
2.9722
 20
9.1962
 30
0
 11
3.1667
 21
9.1962
 31
0
  0
LINE
  8
LAYER1
  6
CONTINUOUS
 62
     7
 10
2.9861
 20
9.1823
 30
0
 11
3.1389
 21
9.1823
 31
0
  0
LINE
  8
LAYER1
  6
CONTINUOUS
 62
     7
 10
2.9722
 20
9.1684
 30
0
 11
3.1667
 21
9.1684
 31
0
  0
LINE
  8
LAYER1
  6
CONTINUOUS
 62
     7
 10
2.9861
 20
9.1545
 30
0
 11
3.1389
 21
9.1545
 31
0
  0
LINE
  8
LAYER1
  6
CONTINUOUS
 62
     7
 10
2.9722
 20
9.1267
 30
0
 11
3.1667
 21
9.1267
 31
0
  0
LINE
  8
LAYER1
  6
CONTINUOUS
 62
     7
 10
2.9861
 20
9.1128
 30
0
 11
3.1389
 21
9.1128
 31
0
  0
LINE
  8
LAYER1
  6
CONTINUOUS
 62
     7
 10
2.9722
 20
9.0989
 30
0
 11
3.1667
 21
9.0989
 31
0
  0
LINE
  8
LAYER1
  6
CONTINUOUS
 62
     7
 10
2.9861
 20
9.0851
 30
0
 11
3.1389
 21
9.0851
 31
0
  0
LINE
  8
LAYER1
  6
CONTINUOUS
 62
     7
 10
2.9722
 20
9.0712
 30
0
 11
3.1667
 21
9.0712
 31
0
  0
LINE
  8
LAYER1
  6
CONTINUOUS
 62
     7
 10
2.9861
 20
9.0573
 30
0
 11
3.1389
 21
9.0573
 31
0
  0
LINE
  8
LAYER1
  6
CONTINUOUS
 62
     7
 10
2.9722
 20
9.0434
 30
0
 11
3.1667
 21
9.0434
 31
0
  0
LINE
  8
LAYER1
  6
CONTINUOUS
 62
     7
 10
2.9861
 20
9.0156
 30
0
 11
3.1389
 21
9.0156
 31
0
  0
LINE
  8
LAYER1
  6
CONTINUOUS
 62
     7
 10
2.9722
 20
9.0017
 30
0
 11
3.1667
 21
9.0017
 31
0
  0
LINE
  8
LAYER1
  6
CONTINUOUS
 62
     7
 10
2.9861
 20
8.9878
 30
0
 11
3.1389
 21
8.9878
 31
0
  0
LINE
  8
LAYER1
  6
CONTINUOUS
 62
     7
 10
2.9722
 20
8.9739
 30
0
 11
3.1667
 21
8.9739
 31
0
  0
LINE
  8
LAYER1
  6
CONTINUOUS
 62
     7
 10
2.9861
 20
8.9601
 30
0
 11
3.1389
 21
8.9601
 31
0
  0
LINE
  8
LAYER1
  6
CONTINUOUS
 62
     7
 10
2.9722
 20
8.9462
 30
0
 11
3.1667
 21
8.9462
 31
0
  0
LINE
  8
LAYER1
  6
CONTINUOUS
 62
     7
 10
2.9861
 20
8.9323
 30
0
 11
3.1389
 21
8.9323
 31
0
  0
LINE
  8
LAYER1
  6
CONTINUOUS
 62
     7
 10
2.9722
 20
8.9184
 30
0
 11
3.1667
 21
8.9184
 31
0
  0
LINE
  8
LAYER1
  6
CONTINUOUS
 62
     7
 10
2.9861
 20
8.8906
 30
0
 11
3.1389
 21
8.8906
 31
0
  0
LINE
  8
LAYER1
  6
CONTINUOUS
 62
     7
 10
2.9722
 20
8.8767
 30
0
 11
3.1667
 21
8.8767
 31
0
  0
LINE
  8
LAYER1
  6
CONTINUOUS
 62
     7
 10
2.9861
 20
8.8628
 30
0
 11
3.1389
 21
8.8628
 31
0
  0
LINE
  8
LAYER1
  6
CONTINUOUS
 62
     7
 10
2.9722
 20
8.8489
 30
0
 11
3.1667
 21
8.8489
 31
0
  0
LINE
  8
LAYER1
  6
CONTINUOUS
 62
     7
 10
2.9861
 20
8.8351
 30
0
 11
3.1389
 21
8.8351
 31
0
  0
LINE
  8
LAYER1
  6
CONTINUOUS
 62
     7
 10
2.9722
 20
8.8212
 30
0
 11
3.1667
 21
8.8212
 31
0
  0
ENDBLK
  8
LAYER1
  0
BLOCK
  8
LAYER1
  2
Group121
 70
     0
 10
0
 20
0
 30
0
  0
POLYLINE
  8
LAYER1
  6
CONTINUOUS
 62
     7
 66
     1
 70
     0
 40
0.0039
 41
0.0039
  0
VERTEX
  8
LAYER1
 10
2.9722
 20
9.6962
 30
0
 70
     0
  0
VERTEX
  8
LAYER1
 10
3
 20
9.7378
 30
0
 70
     0
  0
VERTEX
  8
LAYER1
 10
3.1389
 20
9.7378
 30
0
 70
     0
  0
SEQEND
  0
LINE
  8
LAYER1
  6
CONTINUOUS
 62
     7
 10
3.1667
 20
9.6962
 30
0
 11
3.1389
 21
9.7378
 31
0
  0
LINE
  8
LAYER1
  6
CONTINUOUS
 62
     7
 10
2.9722
 20
8.7934
 30
0
 11
3.1667
 21
8.7934
 31
0
  0
LINE
  8
LAYER1
  6
CONTINUOUS
 62
     7
 10
2.9722
 20
8.7934
 30
0
 11
2.9722
 21
9.7101
 31
0
  0
INSERT
  8
LAYER1
  2
Group120
 10
0
 20
0
 30
0
  0
ENDBLK
  8
LAYER1
  0
BLOCK
  8
LAYER1
  2
Group122
 70
     0
 10
0
 20
0
 30
0
  0
LINE
  8
LAYER1
  6
CONTINUOUS
 62
     7
 10
2.9861
 20
8.8073
 30
0
 11
3.1389
 21
8.8073
 31
0
  0
LINE
  8
LAYER1
  6
CONTINUOUS
 62
     7
 10
2.9722
 20
8.7934
 30
0
 11
2.875
 21
8.6823
 31
0
  0
LINE
  8
LAYER1
  6
CONTINUOUS
 62
     7
 10
3.1667
 20
8.7934
 30
0
 11
3.25
 21
8.6823
 31
0
  0
POLYLINE
  8
LAYER1
  6
CONTINUOUS
 62
     7
 66
     1
 70
     0
 40
0.0039
 41
0.0039
  0
VERTEX
  8
LAYER1
 10
3.0417
 20
8.6267
 30
0
 70
     0
  0
VERTEX
  8
LAYER1
 10
3.0417
 20
8.7239
 30
0
 70
     0
  0
VERTEX
  8
LAYER1
 10
3.0972
 20
8.7239
 30
0
 70
     0
  0
VERTEX
  8
LAYER1
 10
3.0972
 20
8.6267
 30
0
 70
     0
  0
SEQEND
  0
LINE
  8
LAYER1
  6
CONTINUOUS
 62
     7
 10
3.25
 20
8.6823
 30
0
 11
3.0972
 21
8.6823
 31
0
  0
LINE
  8
LAYER1
  6
CONTINUOUS
 62
     7
 10
3.0417
 20
8.6823
 30
0
 11
2.875
 21
8.6823
 31
0
  0
POLYLINE
  8
LAYER1
  6
CONTINUOUS
 62
     7
 66
     1
 70
     0
 40
0.0039
 41
0.0039
  0
VERTEX
  8
LAYER1
 10
3.0278
 20
8.6267
 30
0
 70
     0
  0
VERTEX
  8
LAYER1
 10
2.9861
 20
8.6267
 30
0
 70
     0
  0
VERTEX
  8
LAYER1
 10
2.9167
 20
8.6545
 30
0
 70
     0
  0
VERTEX
  8
LAYER1
 10
2.875
 20
8.6823
 30
0
 70
     0
  0
SEQEND
  0
POLYLINE
  8
LAYER1
  6
CONTINUOUS
 62
     7
 66
     1
 70
     0
 40
0.0039
 41
0.0039
  0
VERTEX
  8
LAYER1
 10
3.25
 20
8.6823
 30
0
 70
     0
  0
VERTEX
  8
LAYER1
 10
3.2083
 20
8.6545
 30
0
 70
     0
  0
VERTEX
  8
LAYER1
 10
3.1389
 20
8.6267
 30
0
 70
     0
  0
VERTEX
  8
LAYER1
 10
3.0972
 20
8.6267
 30
0
 70
     0
  0
SEQEND
  0
ENDBLK
  8
LAYER1
  0
BLOCK
  8
LAYER1
  2
Group123
 70
     0
 10
0
 20
0
 30
0
  0
INSERT
  8
LAYER1
  2
Group121
 10
0
 20
0
 30
0
  0
INSERT
  8
LAYER1
  2
Group122
 10
0
 20
0
 30
0
  0
ENDBLK
  8
LAYER1
  0
BLOCK
  8
LAYER1
  2
Group124
 70
     0
 10
0
 20
0
 30
0
  0
LINE
  8
LAYER1
  6
CONTINUOUS
 62
     7
 10
11.7083
 20
2.5851
 30
0
 11
11.7083
 21
3.9739
 31
0
  0
LINE
  8
LAYER1
  6
CONTINUOUS
 62
     7
 10
11.5
 20
3.9739
 30
0
 11
11.7083
 21
3.9739
 31
0
  0
LINE
  8
LAYER1
  6
CONTINUOUS
 62
     7
 10
11.5
 20
3.9462
 30
0
 11
11.7083
 21
3.9462
 31
0
  0
LINE
  8
LAYER1
  6
CONTINUOUS
 62
     7
 10
11.5
 20
3.9045
 30
0
 11
11.7083
 21
3.9045
 31
0
  0
LINE
  8
LAYER1
  6
CONTINUOUS
 62
     7
 10
11.5
 20
3.8767
 30
0
 11
11.7083
 21
3.8767
 31
0
  0
LINE
  8
LAYER1
  6
CONTINUOUS
 62
     7
 10
11.5
 20
3.8489
 30
0
 11
11.7083
 21
3.8489
 31
0
  0
LINE
  8
LAYER1
  6
CONTINUOUS
 62
     7
 10
11.5
 20
3.8073
 30
0
 11
11.7083
 21
3.8073
 31
0
  0
LINE
  8
LAYER1
  6
CONTINUOUS
 62
     7
 10
11.5
 20
3.7795
 30
0
 11
11.7083
 21
3.7795
 31
0
  0
LINE
  8
LAYER1
  6
CONTINUOUS
 62
     7
 10
11.5
 20
3.7517
 30
0
 11
11.7083
 21
3.7517
 31
0
  0
LINE
  8
LAYER1
  6
CONTINUOUS
 62
     7
 10
11.5
 20
3.7239
 30
0
 11
11.7083
 21
3.7239
 31
0
  0
LINE
  8
LAYER1
  6
CONTINUOUS
 62
     7
 10
11.5278
 20
3.9601
 30
0
 11
11.6806
 21
3.9601
 31
0
  0
LINE
  8
LAYER1
  6
CONTINUOUS
 62
     7
 10
11.5278
 20
3.9184
 30
0
 11
11.6806
 21
3.9184
 31
0
  0
LINE
  8
LAYER1
  6
CONTINUOUS
 62
     7
 10
11.5278
 20
3.8906
 30
0
 11
11.6806
 21
3.8906
 31
0
  0
LINE
  8
LAYER1
  6
CONTINUOUS
 62
     7
 10
11.5278
 20
3.8628
 30
0
 11
11.6806
 21
3.8628
 31
0
  0
LINE
  8
LAYER1
  6
CONTINUOUS
 62
     7
 10
11.5278
 20
3.8351
 30
0
 11
11.6806
 21
3.8351
 31
0
  0
LINE
  8
LAYER1
  6
CONTINUOUS
 62
     7
 10
11.5278
 20
3.7934
 30
0
 11
11.6806
 21
3.7934
 31
0
  0
LINE
  8
LAYER1
  6
CONTINUOUS
 62
     7
 10
11.5278
 20
3.7656
 30
0
 11
11.6806
 21
3.7656
 31
0
  0
LINE
  8
LAYER1
  6
CONTINUOUS
 62
     7
 10
11.5278
 20
3.7378
 30
0
 11
11.6806
 21
3.7378
 31
0
  0
LINE
  8
LAYER1
  6
CONTINUOUS
 62
     7
 10
11.5278
 20
3.7101
 30
0
 11
11.6806
 21
3.7101
 31
0
  0
LINE
  8
LAYER1
  6
CONTINUOUS
 62
     7
 10
11.5
 20
3.6823
 30
0
 11
11.7083
 21
3.6823
 31
0
  0
LINE
  8
LAYER1
  6
CONTINUOUS
 62
     7
 10
11.5278
 20
3.6684
 30
0
 11
11.6806
 21
3.6684
 31
0
  0
LINE
  8
LAYER1
  6
CONTINUOUS
 62
     7
 10
11.5
 20
3.6545
 30
0
 11
11.7083
 21
3.6545
 31
0
  0
LINE
  8
LAYER1
  6
CONTINUOUS
 62
     7
 10
11.5278
 20
3.6406
 30
0
 11
11.6806
 21
3.6406
 31
0
  0
LINE
  8
LAYER1
  6
CONTINUOUS
 62
     7
 10
11.5
 20
3.6267
 30
0
 11
11.7083
 21
3.6267
 31
0
  0
LINE
  8
LAYER1
  6
CONTINUOUS
 62
     7
 10
11.5278
 20
3.6128
 30
0
 11
11.6806
 21
3.6128
 31
0
  0
LINE
  8
LAYER1
  6
CONTINUOUS
 62
     7
 10
11.5
 20
3.5989
 30
0
 11
11.7083
 21
3.5989
 31
0
  0
LINE
  8
LAYER1
  6
CONTINUOUS
 62
     7
 10
11.5278
 20
3.5712
 30
0
 11
11.6806
 21
3.5712
 31
0
  0
LINE
  8
LAYER1
  6
CONTINUOUS
 62
     7
 10
11.5
 20
3.5573
 30
0
 11
11.7083
 21
3.5573
 31
0
  0
LINE
  8
LAYER1
  6
CONTINUOUS
 62
     7
 10
11.5278
 20
3.5434
 30
0
 11
11.6806
 21
3.5434
 31
0
  0
LINE
  8
LAYER1
  6
CONTINUOUS
 62
     7
 10
11.5
 20
3.5295
 30
0
 11
11.7083
 21
3.5295
 31
0
  0
LINE
  8
LAYER1
  6
CONTINUOUS
 62
     7
 10
11.5278
 20
3.5156
 30
0
 11
11.6806
 21
3.5156
 31
0
  0
LINE
  8
LAYER1
  6
CONTINUOUS
 62
     7
 10
11.5
 20
3.5017
 30
0
 11
11.7083
 21
3.5017
 31
0
  0
LINE
  8
LAYER1
  6
CONTINUOUS
 62
     7
 10
11.5278
 20
3.4878
 30
0
 11
11.6806
 21
3.4878
 31
0
  0
LINE
  8
LAYER1
  6
CONTINUOUS
 62
     7
 10
11.5
 20
3.4739
 30
0
 11
11.7083
 21
3.4739
 31
0
  0
LINE
  8
LAYER1
  6
CONTINUOUS
 62
     7
 10
11.5278
 20
3.4462
 30
0
 11
11.6806
 21
3.4462
 31
0
  0
LINE
  8
LAYER1
  6
CONTINUOUS
 62
     7
 10
11.5
 20
3.4323
 30
0
 11
11.7083
 21
3.4323
 31
0
  0
LINE
  8
LAYER1
  6
CONTINUOUS
 62
     7
 10
11.5278
 20
3.4184
 30
0
 11
11.6806
 21
3.4184
 31
0
  0
LINE
  8
LAYER1
  6
CONTINUOUS
 62
     7
 10
11.5
 20
3.4045
 30
0
 11
11.7083
 21
3.4045
 31
0
  0
LINE
  8
LAYER1
  6
CONTINUOUS
 62
     7
 10
11.5278
 20
3.3906
 30
0
 11
11.6806
 21
3.3906
 31
0
  0
LINE
  8
LAYER1
  6
CONTINUOUS
 62
     7
 10
11.5
 20
3.3767
 30
0
 11
11.7083
 21
3.3767
 31
0
  0
LINE
  8
LAYER1
  6
CONTINUOUS
 62
     7
 10
11.5278
 20
3.3628
 30
0
 11
11.6806
 21
3.3628
 31
0
  0
LINE
  8
LAYER1
  6
CONTINUOUS
 62
     7
 10
11.5
 20
3.3351
 30
0
 11
11.7083
 21
3.3351
 31
0
  0
LINE
  8
LAYER1
  6
CONTINUOUS
 62
     7
 10
11.5278
 20
3.3212
 30
0
 11
11.6806
 21
3.3212
 31
0
  0
LINE
  8
LAYER1
  6
CONTINUOUS
 62
     7
 10
11.5
 20
3.3073
 30
0
 11
11.7083
 21
3.3073
 31
0
  0
LINE
  8
LAYER1
  6
CONTINUOUS
 62
     7
 10
11.5278
 20
3.2934
 30
0
 11
11.6806
 21
3.2934
 31
0
  0
LINE
  8
LAYER1
  6
CONTINUOUS
 62
     7
 10
11.5
 20
3.2795
 30
0
 11
11.7083
 21
3.2795
 31
0
  0
LINE
  8
LAYER1
  6
CONTINUOUS
 62
     7
 10
11.5278
 20
3.2656
 30
0
 11
11.6806
 21
3.2656
 31
0
  0
LINE
  8
LAYER1
  6
CONTINUOUS
 62
     7
 10
11.5
 20
3.2517
 30
0
 11
11.7083
 21
3.2517
 31
0
  0
LINE
  8
LAYER1
  6
CONTINUOUS
 62
     7
 10
11.5278
 20
3.2378
 30
0
 11
11.6806
 21
3.2378
 31
0
  0
LINE
  8
LAYER1
  6
CONTINUOUS
 62
     7
 10
11.5
 20
3.2101
 30
0
 11
11.7083
 21
3.2101
 31
0
  0
LINE
  8
LAYER1
  6
CONTINUOUS
 62
     7
 10
11.5278
 20
3.1962
 30
0
 11
11.6806
 21
3.1962
 31
0
  0
LINE
  8
LAYER1
  6
CONTINUOUS
 62
     7
 10
11.5
 20
3.1823
 30
0
 11
11.7083
 21
3.1823
 31
0
  0
LINE
  8
LAYER1
  6
CONTINUOUS
 62
     7
 10
11.5278
 20
3.1684
 30
0
 11
11.6806
 21
3.1684
 31
0
  0
LINE
  8
LAYER1
  6
CONTINUOUS
 62
     7
 10
11.5
 20
3.1545
 30
0
 11
11.7083
 21
3.1545
 31
0
  0
LINE
  8
LAYER1
  6
CONTINUOUS
 62
     7
 10
11.5278
 20
3.1406
 30
0
 11
11.6806
 21
3.1406
 31
0
  0
LINE
  8
LAYER1
  6
CONTINUOUS
 62
     7
 10
11.5
 20
3.1267
 30
0
 11
11.7083
 21
3.1267
 31
0
  0
LINE
  8
LAYER1
  6
CONTINUOUS
 62
     7
 10
11.5278
 20
3.0989
 30
0
 11
11.6806
 21
3.0989
 31
0
  0
LINE
  8
LAYER1
  6
CONTINUOUS
 62
     7
 10
11.5
 20
3.0851
 30
0
 11
11.7083
 21
3.0851
 31
0
  0
LINE
  8
LAYER1
  6
CONTINUOUS
 62
     7
 10
11.5278
 20
3.0712
 30
0
 11
11.6806
 21
3.0712
 31
0
  0
LINE
  8
LAYER1
  6
CONTINUOUS
 62
     7
 10
11.5
 20
3.0573
 30
0
 11
11.7083
 21
3.0573
 31
0
  0
LINE
  8
LAYER1
  6
CONTINUOUS
 62
     7
 10
11.5278
 20
3.0434
 30
0
 11
11.6806
 21
3.0434
 31
0
  0
LINE
  8
LAYER1
  6
CONTINUOUS
 62
     7
 10
11.5
 20
3.0295
 30
0
 11
11.7083
 21
3.0295
 31
0
  0
LINE
  8
LAYER1
  6
CONTINUOUS
 62
     7
 10
11.5278
 20
3.0156
 30
0
 11
11.6806
 21
3.0156
 31
0
  0
LINE
  8
LAYER1
  6
CONTINUOUS
 62
     7
 10
11.5
 20
3.0017
 30
0
 11
11.7083
 21
3.0017
 31
0
  0
LINE
  8
LAYER1
  6
CONTINUOUS
 62
     7
 10
11.5278
 20
2.9739
 30
0
 11
11.6806
 21
2.9739
 31
0
  0
LINE
  8
LAYER1
  6
CONTINUOUS
 62
     7
 10
11.5
 20
2.9601
 30
0
 11
11.7083
 21
2.9601
 31
0
  0
LINE
  8
LAYER1
  6
CONTINUOUS
 62
     7
 10
11.5278
 20
2.9462
 30
0
 11
11.6806
 21
2.9462
 31
0
  0
LINE
  8
LAYER1
  6
CONTINUOUS
 62
     7
 10
11.5
 20
2.9323
 30
0
 11
11.7083
 21
2.9323
 31
0
  0
LINE
  8
LAYER1
  6
CONTINUOUS
 62
     7
 10
11.5278
 20
2.9184
 30
0
 11
11.6806
 21
2.9184
 31
0
  0
LINE
  8
LAYER1
  6
CONTINUOUS
 62
     7
 10
11.5
 20
2.9045
 30
0
 11
11.7083
 21
2.9045
 31
0
  0
LINE
  8
LAYER1
  6
CONTINUOUS
 62
     7
 10
11.5278
 20
2.8906
 30
0
 11
11.6806
 21
2.8906
 31
0
  0
LINE
  8
LAYER1
  6
CONTINUOUS
 62
     7
 10
11.5
 20
2.8628
 30
0
 11
11.7083
 21
2.8628
 31
0
  0
LINE
  8
LAYER1
  6
CONTINUOUS
 62
     7
 10
11.5278
 20
2.8489
 30
0
 11
11.6806
 21
2.8489
 31
0
  0
LINE
  8
LAYER1
  6
CONTINUOUS
 62
     7
 10
11.5
 20
2.8351
 30
0
 11
11.7083
 21
2.8351
 31
0
  0
LINE
  8
LAYER1
  6
CONTINUOUS
 62
     7
 10
11.5278
 20
2.8212
 30
0
 11
11.6806
 21
2.8212
 31
0
  0
LINE
  8
LAYER1
  6
CONTINUOUS
 62
     7
 10
11.5
 20
2.8073
 30
0
 11
11.7083
 21
2.8073
 31
0
  0
LINE
  8
LAYER1
  6
CONTINUOUS
 62
     7
 10
11.5278
 20
2.7934
 30
0
 11
11.6806
 21
2.7934
 31
0
  0
LINE
  8
LAYER1
  6
CONTINUOUS
 62
     7
 10
11.5
 20
2.7795
 30
0
 11
11.7083
 21
2.7795
 31
0
  0
LINE
  8
LAYER1
  6
CONTINUOUS
 62
     7
 10
11.5278
 20
2.7656
 30
0
 11
11.6806
 21
2.7656
 31
0
  0
LINE
  8
LAYER1
  6
CONTINUOUS
 62
     7
 10
11.5
 20
2.7378
 30
0
 11
11.7083
 21
2.7378
 31
0
  0
LINE
  8
LAYER1
  6
CONTINUOUS
 62
     7
 10
11.5278
 20
2.7239
 30
0
 11
11.6806
 21
2.7239
 31
0
  0
LINE
  8
LAYER1
  6
CONTINUOUS
 62
     7
 10
11.5
 20
2.7101
 30
0
 11
11.7083
 21
2.7101
 31
0
  0
LINE
  8
LAYER1
  6
CONTINUOUS
 62
     7
 10
11.5278
 20
2.6962
 30
0
 11
11.6806
 21
2.6962
 31
0
  0
LINE
  8
LAYER1
  6
CONTINUOUS
 62
     7
 10
11.5
 20
2.6823
 30
0
 11
11.7083
 21
2.6823
 31
0
  0
LINE
  8
LAYER1
  6
CONTINUOUS
 62
     7
 10
11.5278
 20
2.6684
 30
0
 11
11.6806
 21
2.6684
 31
0
  0
LINE
  8
LAYER1
  6
CONTINUOUS
 62
     7
 10
11.5
 20
2.6545
 30
0
 11
11.7083
 21
2.6545
 31
0
  0
LINE
  8
LAYER1
  6
CONTINUOUS
 62
     7
 10
11.5278
 20
2.6267
 30
0
 11
11.6806
 21
2.6267
 31
0
  0
LINE
  8
LAYER1
  6
CONTINUOUS
 62
     7
 10
11.5
 20
2.6128
 30
0
 11
11.7083
 21
2.6128
 31
0
  0
ENDBLK
  8
LAYER1
  0
BLOCK
  8
LAYER1
  2
Group125
 70
     0
 10
0
 20
0
 30
0
  0
POLYLINE
  8
LAYER1
  6
CONTINUOUS
 62
     7
 66
     1
 70
     0
 40
0.0039
 41
0.0039
  0
VERTEX
  8
LAYER1
 10
11.5
 20
3.9739
 30
0
 70
     0
  0
VERTEX
  8
LAYER1
 10
11.5417
 20
4.0017
 30
0
 70
     0
  0
VERTEX
  8
LAYER1
 10
11.6667
 20
4.0017
 30
0
 70
     0
  0
SEQEND
  0
LINE
  8
LAYER1
  6
CONTINUOUS
 62
     7
 10
11.7083
 20
3.9739
 30
0
 11
11.6667
 21
4.0017
 31
0
  0
LINE
  8
LAYER1
  6
CONTINUOUS
 62
     7
 10
11.5
 20
2.5851
 30
0
 11
11.7083
 21
2.5851
 31
0
  0
LINE
  8
LAYER1
  6
CONTINUOUS
 62
     7
 10
11.5
 20
2.5851
 30
0
 11
11.5
 21
3.9739
 31
0
  0
INSERT
  8
LAYER1
  2
Group124
 10
0
 20
0
 30
0
  0
ENDBLK
  8
LAYER1
  0
BLOCK
  8
LAYER1
  2
Group126
 70
     0
 10
0
 20
0
 30
0
  0
LINE
  8
LAYER1
  6
CONTINUOUS
 62
     7
 10
11.5278
 20
2.5989
 30
0
 11
11.6806
 21
2.5989
 31
0
  0
LINE
  8
LAYER1
  6
CONTINUOUS
 62
     7
 10
11.5
 20
2.5851
 30
0
 11
11.4167
 21
2.4739
 31
0
  0
LINE
  8
LAYER1
  6
CONTINUOUS
 62
     7
 10
11.7083
 20
2.5851
 30
0
 11
11.7917
 21
2.4739
 31
0
  0
POLYLINE
  8
LAYER1
  6
CONTINUOUS
 62
     7
 66
     1
 70
     0
 40
0.0039
 41
0.0039
  0
VERTEX
  8
LAYER1
 10
11.5694
 20
2.4323
 30
0
 70
     0
  0
VERTEX
  8
LAYER1
 10
11.5694
 20
2.5295
 30
0
 70
     0
  0
VERTEX
  8
LAYER1
 10
11.6389
 20
2.5295
 30
0
 70
     0
  0
VERTEX
  8
LAYER1
 10
11.6389
 20
2.4323
 30
0
 70
     0
  0
SEQEND
  0
LINE
  8
LAYER1
  6
CONTINUOUS
 62
     7
 10
11.7917
 20
2.4739
 30
0
 11
11.6389
 21
2.4739
 31
0
  0
LINE
  8
LAYER1
  6
CONTINUOUS
 62
     7
 10
11.5694
 20
2.4739
 30
0
 11
11.4167
 21
2.4739
 31
0
  0
POLYLINE
  8
LAYER1
  6
CONTINUOUS
 62
     7
 66
     1
 70
     0
 40
0.0039
 41
0.0039
  0
VERTEX
  8
LAYER1
 10
11.5694
 20
2.4323
 30
0
 70
     0
  0
VERTEX
  8
LAYER1
 10
11.5556
 20
2.4323
 30
0
 70
     0
  0
VERTEX
  8
LAYER1
 10
11.5139
 20
2.4323
 30
0
 70
     0
  0
VERTEX
  8
LAYER1
 10
11.4722
 20
2.4462
 30
0
 70
     0
  0
VERTEX
  8
LAYER1
 10
11.4444
 20
2.4601
 30
0
 70
     0
  0
VERTEX
  8
LAYER1
 10
11.4167
 20
2.4739
 30
0
 70
     0
  0
SEQEND
  0
POLYLINE
  8
LAYER1
  6
CONTINUOUS
 62
     7
 66
     1
 70
     0
 40
0.0039
 41
0.0039
  0
VERTEX
  8
LAYER1
 10
11.7917
 20
2.4739
 30
0
 70
     0
  0
VERTEX
  8
LAYER1
 10
11.7639
 20
2.4601
 30
0
 70
     0
  0
VERTEX
  8
LAYER1
 10
11.7361
 20
2.4462
 30
0
 70
     0
  0
VERTEX
  8
LAYER1
 10
11.6944
 20
2.4323
 30
0
 70
     0
  0
VERTEX
  8
LAYER1
 10
11.6667
 20
2.4323
 30
0
 70
     0
  0
VERTEX
  8
LAYER1
 10
11.6389
 20
2.4323
 30
0
 70
     0
  0
SEQEND
  0
ENDBLK
  8
LAYER1
  0
BLOCK
  8
LAYER1
  2
Group127
 70
     0
 10
0
 20
0
 30
0
  0
INSERT
  8
LAYER1
  2
Group125
 10
0
 20
0
 30
0
  0
INSERT
  8
LAYER1
  2
Group126
 10
0
 20
0
 30
0
  0
ENDBLK
  8
LAYER1
  0
BLOCK
  8
LAYER1
  2
Group128
 70
     0
 10
0
 20
0
 30
0
  0
LINE
  8
LAYER1
  6
CONTINUOUS
 62
     7
 10
2.4583
 20
3.8628
 30
0
 11
2.6111
 21
3.8628
 31
0
  0
LINE
  8
LAYER1
  6
CONTINUOUS
 62
     7
 10
2.4583
 20
3.8073
 30
0
 11
2.6111
 21
3.8073
 31
0
  0
LINE
  8
LAYER1
  6
CONTINUOUS
 62
     7
 10
2.4722
 20
3.8351
 30
0
 11
2.5972
 21
3.8351
 31
0
  0
LINE
  8
LAYER1
  6
CONTINUOUS
 62
     7
 10
2.4583
 20
3.7517
 30
0
 11
2.6111
 21
3.7517
 31
0
  0
LINE
  8
LAYER1
  6
CONTINUOUS
 62
     7
 10
2.4722
 20
3.7795
 30
0
 11
2.5972
 21
3.7795
 31
0
  0
LINE
  8
LAYER1
  6
CONTINUOUS
 62
     7
 10
2.4583
 20
3.6962
 30
0
 11
2.6111
 21
3.6962
 31
0
  0
LINE
  8
LAYER1
  6
CONTINUOUS
 62
     7
 10
2.4722
 20
3.7239
 30
0
 11
2.5972
 21
3.7239
 31
0
  0
LINE
  8
LAYER1
  6
CONTINUOUS
 62
     7
 10
2.4583
 20
3.8628
 30
0
 11
2.4861
 21
3.8906
 31
0
  0
LINE
  8
LAYER1
  6
CONTINUOUS
 62
     7
 10
2.6111
 20
3.8628
 30
0
 11
2.5833
 21
3.8906
 31
0
  0
LINE
  8
LAYER1
  6
CONTINUOUS
 62
     7
 10
2.4861
 20
3.8906
 30
0
 11
2.5833
 21
3.8906
 31
0
  0
LINE
  8
LAYER1
  6
CONTINUOUS
 62
     7
 10
2.4583
 20
3.5712
 30
0
 11
2.6111
 21
3.5712
 31
0
  0
LINE
  8
LAYER1
  6
CONTINUOUS
 62
     7
 10
2.4583
 20
3.6406
 30
0
 11
2.6111
 21
3.6406
 31
0
  0
LINE
  8
LAYER1
  6
CONTINUOUS
 62
     7
 10
2.4722
 20
3.6684
 30
0
 11
2.5972
 21
3.6684
 31
0
  0
LINE
  8
LAYER1
  6
CONTINUOUS
 62
     7
 10
2.4583
 20
3.5851
 30
0
 11
2.6111
 21
3.5851
 31
0
  0
LINE
  8
LAYER1
  6
CONTINUOUS
 62
     7
 10
2.4722
 20
3.6128
 30
0
 11
2.5972
 21
3.6128
 31
0
  0
LINE
  8
LAYER1
  6
CONTINUOUS
 62
     7
 10
2.4583
 20
3.8628
 30
0
 11
2.4583
 21
3.5712
 31
0
  0
ENDBLK
  8
LAYER1
  0
BLOCK
  8
LAYER1
  2
Group129
 70
     0
 10
0
 20
0
 30
0
  0
LINE
  8
LAYER1
  6
CONTINUOUS
 62
     7
 10
2.6111
 20
3.5712
 30
0
 11
2.6111
 21
3.8628
 31
0
  0
LINE
  8
LAYER1
  6
CONTINUOUS
 62
     7
 10
2.5
 20
3.5017
 30
0
 11
2.5556
 21
3.5017
 31
0
  0
LINE
  8
LAYER1
  6
CONTINUOUS
 62
     7
 10
2.4583
 20
3.5712
 30
0
 11
2.3611
 21
3.4739
 31
0
  0
POLYLINE
  8
LAYER1
  6
CONTINUOUS
 62
     7
 66
     1
 70
     0
 40
0.0039
 41
0.0039
  0
VERTEX
  8
LAYER1
 10
2.6111
 20
3.5712
 30
0
 70
     0
  0
VERTEX
  8
LAYER1
 10
2.6944
 20
3.4739
 30
0
 70
     0
  0
VERTEX
  8
LAYER1
 10
2.5556
 20
3.4739
 30
0
 70
     0
  0
SEQEND
  0
LINE
  8
LAYER1
  6
CONTINUOUS
 62
     7
 10
2.5556
 20
3.5017
 30
0
 11
2.5556
 21
3.4184
 31
0
  0
LINE
  8
LAYER1
  6
CONTINUOUS
 62
     7
 10
2.5
 20
3.4184
 30
0
 11
2.5
 21
3.5017
 31
0
  0
LINE
  8
LAYER1
  6
CONTINUOUS
 62
     7
 10
2.5
 20
3.4739
 30
0
 11
2.3611
 21
3.4739
 31
0
  0
POLYLINE
  8
LAYER1
  6
CONTINUOUS
 62
     7
 66
     1
 70
     0
 40
0.0039
 41
0.0039
  0
VERTEX
  8
LAYER1
 10
2.5
 20
3.4184
 30
0
 70
     0
  0
VERTEX
  8
LAYER1
 10
2.4583
 20
3.4184
 30
0
 70
     0
  0
VERTEX
  8
LAYER1
 10
2.3889
 20
3.4462
 30
0
 70
     0
  0
VERTEX
  8
LAYER1
 10
2.3611
 20
3.4739
 30
0
 70
     0
  0
SEQEND
  0
POLYLINE
  8
LAYER1
  6
CONTINUOUS
 62
     7
 66
     1
 70
     0
 40
0.0039
 41
0.0039
  0
VERTEX
  8
LAYER1
 10
2.6944
 20
3.4739
 30
0
 70
     0
  0
VERTEX
  8
LAYER1
 10
2.6667
 20
3.4462
 30
0
 70
     0
  0
VERTEX
  8
LAYER1
 10
2.5972
 20
3.4184
 30
0
 70
     0
  0
VERTEX
  8
LAYER1
 10
2.5556
 20
3.4184
 30
0
 70
     0
  0
SEQEND
  0
ENDBLK
  8
LAYER1
  0
BLOCK
  8
LAYER1
  2
Group130
 70
     0
 10
0
 20
0
 30
0
  0
INSERT
  8
LAYER1
  2
Group128
 10
0
 20
0
 30
0
  0
INSERT
  8
LAYER1
  2
Group129
 10
0
 20
0
 30
0
  0
ENDBLK
  8
LAYER1
  0
BLOCK
  8
LAYER1
  2
Group131
 70
     0
 10
0
 20
0
 30
0
  0
LINE
  8
LAYER1
  6
CONTINUOUS
 62
     7
 10
2.4583
 20
4.5156
 30
0
 11
2.6111
 21
4.5156
 31
0
  0
LINE
  8
LAYER1
  6
CONTINUOUS
 62
     7
 10
2.4583
 20
4.4601
 30
0
 11
2.6111
 21
4.4601
 31
0
  0
LINE
  8
LAYER1
  6
CONTINUOUS
 62
     7
 10
2.4722
 20
4.4878
 30
0
 11
2.5972
 21
4.4878
 31
0
  0
LINE
  8
LAYER1
  6
CONTINUOUS
 62
     7
 10
2.4583
 20
4.4045
 30
0
 11
2.6111
 21
4.4045
 31
0
  0
LINE
  8
LAYER1
  6
CONTINUOUS
 62
     7
 10
2.4722
 20
4.4323
 30
0
 11
2.5972
 21
4.4323
 31
0
  0
LINE
  8
LAYER1
  6
CONTINUOUS
 62
     7
 10
2.4583
 20
4.3489
 30
0
 11
2.6111
 21
4.3489
 31
0
  0
LINE
  8
LAYER1
  6
CONTINUOUS
 62
     7
 10
2.4722
 20
4.3767
 30
0
 11
2.5972
 21
4.3767
 31
0
  0
LINE
  8
LAYER1
  6
CONTINUOUS
 62
     7
 10
2.4583
 20
4.5156
 30
0
 11
2.4861
 21
4.5434
 31
0
  0
LINE
  8
LAYER1
  6
CONTINUOUS
 62
     7
 10
2.6111
 20
4.5156
 30
0
 11
2.5833
 21
4.5434
 31
0
  0
LINE
  8
LAYER1
  6
CONTINUOUS
 62
     7
 10
2.4861
 20
4.5434
 30
0
 11
2.5833
 21
4.5434
 31
0
  0
LINE
  8
LAYER1
  6
CONTINUOUS
 62
     7
 10
2.4583
 20
4.2934
 30
0
 11
2.6111
 21
4.2934
 31
0
  0
LINE
  8
LAYER1
  6
CONTINUOUS
 62
     7
 10
2.4722
 20
4.3212
 30
0
 11
2.5972
 21
4.3212
 31
0
  0
LINE
  8
LAYER1
  6
CONTINUOUS
 62
     7
 10
2.4583
 20
4.2378
 30
0
 11
2.6111
 21
4.2378
 31
0
  0
LINE
  8
LAYER1
  6
CONTINUOUS
 62
     7
 10
2.4722
 20
4.2656
 30
0
 11
2.5972
 21
4.2656
 31
0
  0
LINE
  8
LAYER1
  6
CONTINUOUS
 62
     7
 10
2.4583
 20
4.1545
 30
0
 11
2.6111
 21
4.1545
 31
0
  0
LINE
  8
LAYER1
  6
CONTINUOUS
 62
     7
 10
2.4583
 20
4.1823
 30
0
 11
2.6111
 21
4.1823
 31
0
  0
LINE
  8
LAYER1
  6
CONTINUOUS
 62
     7
 10
2.4722
 20
4.2101
 30
0
 11
2.5972
 21
4.2101
 31
0
  0
LINE
  8
LAYER1
  6
CONTINUOUS
 62
     7
 10
2.4583
 20
4.1545
 30
0
 11
2.4583
 21
4.5156
 31
0
  0
ENDBLK
  8
LAYER1
  0
BLOCK
  8
LAYER1
  2
Group132
 70
     0
 10
0
 20
0
 30
0
  0
LINE
  8
LAYER1
  6
CONTINUOUS
 62
     7
 10
2.6111
 20
4.1545
 30
0
 11
2.6111
 21
4.5156
 31
0
  0
LINE
  8
LAYER1
  6
CONTINUOUS
 62
     7
 10
2.5
 20
4.0712
 30
0
 11
2.5556
 21
4.0712
 31
0
  0
LINE
  8
LAYER1
  6
CONTINUOUS
 62
     7
 10
2.4583
 20
4.1545
 30
0
 11
2.3611
 21
4.0434
 31
0
  0
POLYLINE
  8
LAYER1
  6
CONTINUOUS
 62
     7
 66
     1
 70
     0
 40
0.0039
 41
0.0039
  0
VERTEX
  8
LAYER1
 10
2.6111
 20
4.1545
 30
0
 70
     0
  0
VERTEX
  8
LAYER1
 10
2.6944
 20
4.0434
 30
0
 70
     0
  0
VERTEX
  8
LAYER1
 10
2.5556
 20
4.0434
 30
0
 70
     0
  0
SEQEND
  0
LINE
  8
LAYER1
  6
CONTINUOUS
 62
     7
 10
2.5556
 20
4.0712
 30
0
 11
2.5556
 21
4.0017
 31
0
  0
LINE
  8
LAYER1
  6
CONTINUOUS
 62
     7
 10
2.5
 20
4.0017
 30
0
 11
2.5
 21
4.0712
 31
0
  0
LINE
  8
LAYER1
  6
CONTINUOUS
 62
     7
 10
2.5
 20
4.0434
 30
0
 11
2.3611
 21
4.0434
 31
0
  0
POLYLINE
  8
LAYER1
  6
CONTINUOUS
 62
     7
 66
     1
 70
     0
 40
0.0039
 41
0.0039
  0
VERTEX
  8
LAYER1
 10
2.5
 20
4.0017
 30
0
 70
     0
  0
VERTEX
  8
LAYER1
 10
2.4861
 20
4.0017
 30
0
 70
     0
  0
VERTEX
  8
LAYER1
 10
2.4444
 20
4.0017
 30
0
 70
     0
  0
VERTEX
  8
LAYER1
 10
2.4167
 20
4.0156
 30
0
 70
     0
  0
VERTEX
  8
LAYER1
 10
2.375
 20
4.0295
 30
0
 70
     0
  0
VERTEX
  8
LAYER1
 10
2.3611
 20
4.0434
 30
0
 70
     0
  0
SEQEND
  0
POLYLINE
  8
LAYER1
  6
CONTINUOUS
 62
     7
 66
     1
 70
     0
 40
0.0039
 41
0.0039
  0
VERTEX
  8
LAYER1
 10
2.6944
 20
4.0434
 30
0
 70
     0
  0
VERTEX
  8
LAYER1
 10
2.6806
 20
4.0295
 30
0
 70
     0
  0
VERTEX
  8
LAYER1
 10
2.6389
 20
4.0156
 30
0
 70
     0
  0
VERTEX
  8
LAYER1
 10
2.6111
 20
4.0017
 30
0
 70
     0
  0
VERTEX
  8
LAYER1
 10
2.5833
 20
4.0017
 30
0
 70
     0
  0
VERTEX
  8
LAYER1
 10
2.5556
 20
4.0017
 30
0
 70
     0
  0
SEQEND
  0
ENDBLK
  8
LAYER1
  0
BLOCK
  8
LAYER1
  2
Group133
 70
     0
 10
0
 20
0
 30
0
  0
INSERT
  8
LAYER1
  2
Group131
 10
0
 20
0
 30
0
  0
INSERT
  8
LAYER1
  2
Group132
 10
0
 20
0
 30
0
  0
ENDBLK
  8
LAYER1
  0
BLOCK
  8
LAYER1
  2
Group134
 70
     0
 10
0
 20
0
 30
0
  0
LINE
  8
LAYER1
  6
CONTINUOUS
 62
     7
 10
2.4583
 20
5.3073
 30
0
 11
2.6111
 21
5.3073
 31
0
  0
LINE
  8
LAYER1
  6
CONTINUOUS
 62
     7
 10
2.4583
 20
5.2517
 30
0
 11
2.6111
 21
5.2517
 31
0
  0
LINE
  8
LAYER1
  6
CONTINUOUS
 62
     7
 10
2.4722
 20
5.2795
 30
0
 11
2.5972
 21
5.2795
 31
0
  0
LINE
  8
LAYER1
  6
CONTINUOUS
 62
     7
 10
2.4583
 20
5.1962
 30
0
 11
2.6111
 21
5.1962
 31
0
  0
LINE
  8
LAYER1
  6
CONTINUOUS
 62
     7
 10
2.4722
 20
5.2239
 30
0
 11
2.5972
 21
5.2239
 31
0
  0
LINE
  8
LAYER1
  6
CONTINUOUS
 62
     7
 10
2.4583
 20
5.1406
 30
0
 11
2.6111
 21
5.1406
 31
0
  0
LINE
  8
LAYER1
  6
CONTINUOUS
 62
     7
 10
2.4722
 20
5.1684
 30
0
 11
2.5972
 21
5.1684
 31
0
  0
LINE
  8
LAYER1
  6
CONTINUOUS
 62
     7
 10
2.4583
 20
5.3073
 30
0
 11
2.4861
 21
5.3351
 31
0
  0
LINE
  8
LAYER1
  6
CONTINUOUS
 62
     7
 10
2.6111
 20
5.3073
 30
0
 11
2.5833
 21
5.3351
 31
0
  0
LINE
  8
LAYER1
  6
CONTINUOUS
 62
     7
 10
2.4861
 20
5.3351
 30
0
 11
2.5833
 21
5.3351
 31
0
  0
LINE
  8
LAYER1
  6
CONTINUOUS
 62
     7
 10
2.4583
 20
5.0851
 30
0
 11
2.6111
 21
5.0851
 31
0
  0
LINE
  8
LAYER1
  6
CONTINUOUS
 62
     7
 10
2.4722
 20
5.1128
 30
0
 11
2.5972
 21
5.1128
 31
0
  0
LINE
  8
LAYER1
  6
CONTINUOUS
 62
     7
 10
2.4583
 20
5.0295
 30
0
 11
2.6111
 21
5.0295
 31
0
  0
LINE
  8
LAYER1
  6
CONTINUOUS
 62
     7
 10
2.4722
 20
5.0573
 30
0
 11
2.5972
 21
5.0573
 31
0
  0
LINE
  8
LAYER1
  6
CONTINUOUS
 62
     7
 10
2.4583
 20
4.9739
 30
0
 11
2.6111
 21
4.9739
 31
0
  0
LINE
  8
LAYER1
  6
CONTINUOUS
 62
     7
 10
2.4722
 20
5.0017
 30
0
 11
2.5972
 21
5.0017
 31
0
  0
LINE
  8
LAYER1
  6
CONTINUOUS
 62
     7
 10
2.4583
 20
4.8628
 30
0
 11
2.6111
 21
4.8628
 31
0
  0
LINE
  8
LAYER1
  6
CONTINUOUS
 62
     7
 10
2.4583
 20
4.9184
 30
0
 11
2.6111
 21
4.9184
 31
0
  0
LINE
  8
LAYER1
  6
CONTINUOUS
 62
     7
 10
2.4722
 20
4.9462
 30
0
 11
2.5972
 21
4.9462
 31
0
  0
LINE
  8
LAYER1
  6
CONTINUOUS
 62
     7
 10
2.4722
 20
4.8906
 30
0
 11
2.5972
 21
4.8906
 31
0
  0
LINE
  8
LAYER1
  6
CONTINUOUS
 62
     7
 10
2.4583
 20
4.8628
 30
0
 11
2.4583
 21
5.3073
 31
0
  0
ENDBLK
  8
LAYER1
  0
BLOCK
  8
LAYER1
  2
Group135
 70
     0
 10
0
 20
0
 30
0
  0
LINE
  8
LAYER1
  6
CONTINUOUS
 62
     7
 10
2.6111
 20
4.8628
 30
0
 11
2.6111
 21
5.3073
 31
0
  0
LINE
  8
LAYER1
  6
CONTINUOUS
 62
     7
 10
2.5
 20
4.7795
 30
0
 11
2.5556
 21
4.7795
 31
0
  0
LINE
  8
LAYER1
  6
CONTINUOUS
 62
     7
 10
2.4583
 20
4.8628
 30
0
 11
2.3611
 21
4.7517
 31
0
  0
POLYLINE
  8
LAYER1
  6
CONTINUOUS
 62
     7
 66
     1
 70
     0
 40
0.0039
 41
0.0039
  0
VERTEX
  8
LAYER1
 10
2.6111
 20
4.8628
 30
0
 70
     0
  0
VERTEX
  8
LAYER1
 10
2.6944
 20
4.7517
 30
0
 70
     0
  0
VERTEX
  8
LAYER1
 10
2.5556
 20
4.7517
 30
0
 70
     0
  0
SEQEND
  0
LINE
  8
LAYER1
  6
CONTINUOUS
 62
     7
 10
2.5556
 20
4.7795
 30
0
 11
2.5556
 21
4.7101
 31
0
  0
LINE
  8
LAYER1
  6
CONTINUOUS
 62
     7
 10
2.5
 20
4.7101
 30
0
 11
2.5
 21
4.7795
 31
0
  0
LINE
  8
LAYER1
  6
CONTINUOUS
 62
     7
 10
2.5
 20
4.7517
 30
0
 11
2.3611
 21
4.7517
 31
0
  0
POLYLINE
  8
LAYER1
  6
CONTINUOUS
 62
     7
 66
     1
 70
     0
 40
0.0039
 41
0.0039
  0
VERTEX
  8
LAYER1
 10
2.5
 20
4.7101
 30
0
 70
     0
  0
VERTEX
  8
LAYER1
 10
2.4861
 20
4.7101
 30
0
 70
     0
  0
VERTEX
  8
LAYER1
 10
2.4444
 20
4.7101
 30
0
 70
     0
  0
VERTEX
  8
LAYER1
 10
2.4167
 20
4.7239
 30
0
 70
     0
  0
VERTEX
  8
LAYER1
 10
2.375
 20
4.7378
 30
0
 70
     0
  0
VERTEX
  8
LAYER1
 10
2.3611
 20
4.7517
 30
0
 70
     0
  0
SEQEND
  0
POLYLINE
  8
LAYER1
  6
CONTINUOUS
 62
     7
 66
     1
 70
     0
 40
0.0039
 41
0.0039
  0
VERTEX
  8
LAYER1
 10
2.6944
 20
4.7517
 30
0
 70
     0
  0
VERTEX
  8
LAYER1
 10
2.6806
 20
4.7378
 30
0
 70
     0
  0
VERTEX
  8
LAYER1
 10
2.6389
 20
4.7239
 30
0
 70
     0
  0
VERTEX
  8
LAYER1
 10
2.6111
 20
4.7101
 30
0
 70
     0
  0
VERTEX
  8
LAYER1
 10
2.5833
 20
4.7101
 30
0
 70
     0
  0
VERTEX
  8
LAYER1
 10
2.5556
 20
4.7101
 30
0
 70
     0
  0
SEQEND
  0
ENDBLK
  8
LAYER1
  0
BLOCK
  8
LAYER1
  2
Group136
 70
     0
 10
0
 20
0
 30
0
  0
INSERT
  8
LAYER1
  2
Group134
 10
0
 20
0
 30
0
  0
INSERT
  8
LAYER1
  2
Group135
 10
0
 20
0
 30
0
  0
ENDBLK
  8
LAYER1
  0
BLOCK
  8
LAYER1
  2
Group137
 70
     0
 10
0
 20
0
 30
0
  0
LINE
  8
LAYER1
  6
CONTINUOUS
 62
     7
 10
2.4583
 20
6.1823
 30
0
 11
2.6111
 21
6.1823
 31
0
  0
LINE
  8
LAYER1
  6
CONTINUOUS
 62
     7
 10
2.4583
 20
6.1267
 30
0
 11
2.6111
 21
6.1267
 31
0
  0
LINE
  8
LAYER1
  6
CONTINUOUS
 62
     7
 10
2.4722
 20
6.1545
 30
0
 11
2.5972
 21
6.1545
 31
0
  0
LINE
  8
LAYER1
  6
CONTINUOUS
 62
     7
 10
2.4583
 20
6.0712
 30
0
 11
2.6111
 21
6.0712
 31
0
  0
LINE
  8
LAYER1
  6
CONTINUOUS
 62
     7
 10
2.4722
 20
6.0989
 30
0
 11
2.5972
 21
6.0989
 31
0
  0
LINE
  8
LAYER1
  6
CONTINUOUS
 62
     7
 10
2.4583
 20
6.0156
 30
0
 11
2.6111
 21
6.0156
 31
0
  0
LINE
  8
LAYER1
  6
CONTINUOUS
 62
     7
 10
2.4722
 20
6.0434
 30
0
 11
2.5972
 21
6.0434
 31
0
  0
LINE
  8
LAYER1
  6
CONTINUOUS
 62
     7
 10
2.4583
 20
6.1823
 30
0
 11
2.4861
 21
6.2101
 31
0
  0
LINE
  8
LAYER1
  6
CONTINUOUS
 62
     7
 10
2.6111
 20
6.1823
 30
0
 11
2.5833
 21
6.2101
 31
0
  0
LINE
  8
LAYER1
  6
CONTINUOUS
 62
     7
 10
2.4861
 20
6.2101
 30
0
 11
2.5833
 21
6.2101
 31
0
  0
LINE
  8
LAYER1
  6
CONTINUOUS
 62
     7
 10
2.4583
 20
5.9601
 30
0
 11
2.6111
 21
5.9601
 31
0
  0
LINE
  8
LAYER1
  6
CONTINUOUS
 62
     7
 10
2.4722
 20
5.9878
 30
0
 11
2.5972
 21
5.9878
 31
0
  0
LINE
  8
LAYER1
  6
CONTINUOUS
 62
     7
 10
2.4583
 20
5.9045
 30
0
 11
2.6111
 21
5.9045
 31
0
  0
LINE
  8
LAYER1
  6
CONTINUOUS
 62
     7
 10
2.4722
 20
5.9323
 30
0
 11
2.5972
 21
5.9323
 31
0
  0
LINE
  8
LAYER1
  6
CONTINUOUS
 62
     7
 10
2.4583
 20
5.8489
 30
0
 11
2.6111
 21
5.8489
 31
0
  0
LINE
  8
LAYER1
  6
CONTINUOUS
 62
     7
 10
2.4722
 20
5.8767
 30
0
 11
2.5972
 21
5.8767
 31
0
  0
LINE
  8
LAYER1
  6
CONTINUOUS
 62
     7
 10
2.4583
 20
5.7934
 30
0
 11
2.6111
 21
5.7934
 31
0
  0
LINE
  8
LAYER1
  6
CONTINUOUS
 62
     7
 10
2.4722
 20
5.8212
 30
0
 11
2.5972
 21
5.8212
 31
0
  0
LINE
  8
LAYER1
  6
CONTINUOUS
 62
     7
 10
2.4722
 20
5.7656
 30
0
 11
2.5972
 21
5.7656
 31
0
  0
LINE
  8
LAYER1
  6
CONTINUOUS
 62
     7
 10
2.4583
 20
5.6684
 30
0
 11
2.6111
 21
5.6684
 31
0
  0
LINE
  8
LAYER1
  6
CONTINUOUS
 62
     7
 10
2.4583
 20
5.7378
 30
0
 11
2.6111
 21
5.7378
 31
0
  0
LINE
  8
LAYER1
  6
CONTINUOUS
 62
     7
 10
2.4722
 20
5.7101
 30
0
 11
2.5972
 21
5.7101
 31
0
  0
LINE
  8
LAYER1
  6
CONTINUOUS
 62
     7
 10
2.4583
 20
5.6823
 30
0
 11
2.6111
 21
5.6823
 31
0
  0
LINE
  8
LAYER1
  6
CONTINUOUS
 62
     7
 10
2.4583
 20
5.6684
 30
0
 11
2.4583
 21
6.1823
 31
0
  0
ENDBLK
  8
LAYER1
  0
BLOCK
  8
LAYER1
  2
Group138
 70
     0
 10
0
 20
0
 30
0
  0
LINE
  8
LAYER1
  6
CONTINUOUS
 62
     7
 10
2.6111
 20
5.6684
 30
0
 11
2.6111
 21
6.1823
 31
0
  0
LINE
  8
LAYER1
  6
CONTINUOUS
 62
     7
 10
2.5
 20
5.5851
 30
0
 11
2.5556
 21
5.5851
 31
0
  0
LINE
  8
LAYER1
  6
CONTINUOUS
 62
     7
 10
2.4583
 20
5.6684
 30
0
 11
2.3611
 21
5.5573
 31
0
  0
POLYLINE
  8
LAYER1
  6
CONTINUOUS
 62
     7
 66
     1
 70
     0
 40
0.0039
 41
0.0039
  0
VERTEX
  8
LAYER1
 10
2.6111
 20
5.6684
 30
0
 70
     0
  0
VERTEX
  8
LAYER1
 10
2.6944
 20
5.5573
 30
0
 70
     0
  0
VERTEX
  8
LAYER1
 10
2.5556
 20
5.5573
 30
0
 70
     0
  0
SEQEND
  0
LINE
  8
LAYER1
  6
CONTINUOUS
 62
     7
 10
2.5556
 20
5.5851
 30
0
 11
2.5556
 21
5.5156
 31
0
  0
LINE
  8
LAYER1
  6
CONTINUOUS
 62
     7
 10
2.5
 20
5.5156
 30
0
 11
2.5
 21
5.5851
 31
0
  0
LINE
  8
LAYER1
  6
CONTINUOUS
 62
     7
 10
2.5
 20
5.5573
 30
0
 11
2.3611
 21
5.5573
 31
0
  0
POLYLINE
  8
LAYER1
  6
CONTINUOUS
 62
     7
 66
     1
 70
     0
 40
0.0039
 41
0.0039
  0
VERTEX
  8
LAYER1
 10
2.5
 20
5.5156
 30
0
 70
     0
  0
VERTEX
  8
LAYER1
 10
2.4861
 20
5.5156
 30
0
 70
     0
  0
VERTEX
  8
LAYER1
 10
2.4444
 20
5.5156
 30
0
 70
     0
  0
VERTEX
  8
LAYER1
 10
2.4167
 20
5.5295
 30
0
 70
     0
  0
VERTEX
  8
LAYER1
 10
2.375
 20
5.5434
 30
0
 70
     0
  0
VERTEX
  8
LAYER1
 10
2.3611
 20
5.5573
 30
0
 70
     0
  0
SEQEND
  0
POLYLINE
  8
LAYER1
  6
CONTINUOUS
 62
     7
 66
     1
 70
     0
 40
0.0039
 41
0.0039
  0
VERTEX
  8
LAYER1
 10
2.6944
 20
5.5573
 30
0
 70
     0
  0
VERTEX
  8
LAYER1
 10
2.6806
 20
5.5434
 30
0
 70
     0
  0
VERTEX
  8
LAYER1
 10
2.6389
 20
5.5295
 30
0
 70
     0
  0
VERTEX
  8
LAYER1
 10
2.6111
 20
5.5156
 30
0
 70
     0
  0
VERTEX
  8
LAYER1
 10
2.5833
 20
5.5156
 30
0
 70
     0
  0
VERTEX
  8
LAYER1
 10
2.5556
 20
5.5156
 30
0
 70
     0
  0
SEQEND
  0
ENDBLK
  8
LAYER1
  0
BLOCK
  8
LAYER1
  2
Group139
 70
     0
 10
0
 20
0
 30
0
  0
INSERT
  8
LAYER1
  2
Group137
 10
0
 20
0
 30
0
  0
INSERT
  8
LAYER1
  2
Group138
 10
0
 20
0
 30
0
  0
ENDBLK
  8
LAYER1
  0
BLOCK
  8
LAYER1
  2
Group140
 70
     0
 10
0
 20
0
 30
0
  0
LINE
  8
LAYER1
  6
CONTINUOUS
 62
     7
 10
2.4583
 20
7.2378
 30
0
 11
2.6111
 21
7.2378
 31
0
  0
LINE
  8
LAYER1
  6
CONTINUOUS
 62
     7
 10
2.4583
 20
7.1823
 30
0
 11
2.6111
 21
7.1823
 31
0
  0
LINE
  8
LAYER1
  6
CONTINUOUS
 62
     7
 10
2.4722
 20
7.2101
 30
0
 11
2.5972
 21
7.2101
 31
0
  0
LINE
  8
LAYER1
  6
CONTINUOUS
 62
     7
 10
2.4583
 20
7.1267
 30
0
 11
2.6111
 21
7.1267
 31
0
  0
LINE
  8
LAYER1
  6
CONTINUOUS
 62
     7
 10
2.4722
 20
7.1545
 30
0
 11
2.5972
 21
7.1545
 31
0
  0
LINE
  8
LAYER1
  6
CONTINUOUS
 62
     7
 10
2.4583
 20
7.0712
 30
0
 11
2.6111
 21
7.0712
 31
0
  0
LINE
  8
LAYER1
  6
CONTINUOUS
 62
     7
 10
2.4722
 20
7.0989
 30
0
 11
2.5972
 21
7.0989
 31
0
  0
LINE
  8
LAYER1
  6
CONTINUOUS
 62
     7
 10
2.4583
 20
7.2378
 30
0
 11
2.4861
 21
7.2656
 31
0
  0
LINE
  8
LAYER1
  6
CONTINUOUS
 62
     7
 10
2.6111
 20
7.2378
 30
0
 11
2.5833
 21
7.2656
 31
0
  0
LINE
  8
LAYER1
  6
CONTINUOUS
 62
     7
 10
2.4861
 20
7.2656
 30
0
 11
2.5833
 21
7.2656
 31
0
  0
LINE
  8
LAYER1
  6
CONTINUOUS
 62
     7
 10
2.4583
 20
7.0156
 30
0
 11
2.6111
 21
7.0156
 31
0
  0
LINE
  8
LAYER1
  6
CONTINUOUS
 62
     7
 10
2.4722
 20
7.0434
 30
0
 11
2.5972
 21
7.0434
 31
0
  0
LINE
  8
LAYER1
  6
CONTINUOUS
 62
     7
 10
2.4583
 20
6.9601
 30
0
 11
2.6111
 21
6.9601
 31
0
  0
LINE
  8
LAYER1
  6
CONTINUOUS
 62
     7
 10
2.4722
 20
6.9878
 30
0
 11
2.5972
 21
6.9878
 31
0
  0
LINE
  8
LAYER1
  6
CONTINUOUS
 62
     7
 10
2.4583
 20
6.9045
 30
0
 11
2.6111
 21
6.9045
 31
0
  0
LINE
  8
LAYER1
  6
CONTINUOUS
 62
     7
 10
2.4722
 20
6.9323
 30
0
 11
2.5972
 21
6.9323
 31
0
  0
LINE
  8
LAYER1
  6
CONTINUOUS
 62
     7
 10
2.4583
 20
6.8489
 30
0
 11
2.6111
 21
6.8489
 31
0
  0
LINE
  8
LAYER1
  6
CONTINUOUS
 62
     7
 10
2.4722
 20
6.8767
 30
0
 11
2.5972
 21
6.8767
 31
0
  0
LINE
  8
LAYER1
  6
CONTINUOUS
 62
     7
 10
2.4722
 20
6.8212
 30
0
 11
2.5972
 21
6.8212
 31
0
  0
LINE
  8
LAYER1
  6
CONTINUOUS
 62
     7
 10
2.4583
 20
6.7934
 30
0
 11
2.6111
 21
6.7934
 31
0
  0
LINE
  8
LAYER1
  6
CONTINUOUS
 62
     7
 10
2.4722
 20
6.7656
 30
0
 11
2.5972
 21
6.7656
 31
0
  0
LINE
  8
LAYER1
  6
CONTINUOUS
 62
     7
 10
2.4583
 20
6.7378
 30
0
 11
2.6111
 21
6.7378
 31
0
  0
LINE
  8
LAYER1
  6
CONTINUOUS
 62
     7
 10
2.4722
 20
6.7101
 30
0
 11
2.5972
 21
6.7101
 31
0
  0
LINE
  8
LAYER1
  6
CONTINUOUS
 62
     7
 10
2.4583
 20
6.6267
 30
0
 11
2.6111
 21
6.6267
 31
0
  0
LINE
  8
LAYER1
  6
CONTINUOUS
 62
     7
 10
2.4583
 20
6.6267
 30
0
 11
2.4583
 21
7.2378
 31
0
  0
LINE
  8
LAYER1
  6
CONTINUOUS
 62
     7
 10
2.6111
 20
6.6267
 30
0
 11
2.6111
 21
7.2378
 31
0
  0
LINE
  8
LAYER1
  6
CONTINUOUS
 62
     7
 10
2.4583
 20
6.6823
 30
0
 11
2.6111
 21
6.6823
 31
0
  0
ENDBLK
  8
LAYER1
  0
BLOCK
  8
LAYER1
  2
Group141
 70
     0
 10
0
 20
0
 30
0
  0
LINE
  8
LAYER1
  6
CONTINUOUS
 62
     7
 10
2.4722
 20
6.6545
 30
0
 11
2.5972
 21
6.6545
 31
0
  0
LINE
  8
LAYER1
  6
CONTINUOUS
 62
     7
 10
2.5
 20
6.5573
 30
0
 11
2.5556
 21
6.5573
 31
0
  0
LINE
  8
LAYER1
  6
CONTINUOUS
 62
     7
 10
2.4583
 20
6.6267
 30
0
 11
2.3611
 21
6.5295
 31
0
  0
POLYLINE
  8
LAYER1
  6
CONTINUOUS
 62
     7
 66
     1
 70
     0
 40
0.0039
 41
0.0039
  0
VERTEX
  8
LAYER1
 10
2.6111
 20
6.6267
 30
0
 70
     0
  0
VERTEX
  8
LAYER1
 10
2.6944
 20
6.5295
 30
0
 70
     0
  0
VERTEX
  8
LAYER1
 10
2.5556
 20
6.5295
 30
0
 70
     0
  0
SEQEND
  0
LINE
  8
LAYER1
  6
CONTINUOUS
 62
     7
 10
2.5556
 20
6.5573
 30
0
 11
2.5556
 21
6.4739
 31
0
  0
LINE
  8
LAYER1
  6
CONTINUOUS
 62
     7
 10
2.5
 20
6.4739
 30
0
 11
2.5
 21
6.5573
 31
0
  0
LINE
  8
LAYER1
  6
CONTINUOUS
 62
     7
 10
2.5
 20
6.5295
 30
0
 11
2.3611
 21
6.5295
 31
0
  0
POLYLINE
  8
LAYER1
  6
CONTINUOUS
 62
     7
 66
     1
 70
     0
 40
0.0039
 41
0.0039
  0
VERTEX
  8
LAYER1
 10
2.5
 20
6.4739
 30
0
 70
     0
  0
VERTEX
  8
LAYER1
 10
2.4583
 20
6.4739
 30
0
 70
     0
  0
VERTEX
  8
LAYER1
 10
2.3889
 20
6.5017
 30
0
 70
     0
  0
VERTEX
  8
LAYER1
 10
2.3611
 20
6.5295
 30
0
 70
     0
  0
SEQEND
  0
POLYLINE
  8
LAYER1
  6
CONTINUOUS
 62
     7
 66
     1
 70
     0
 40
0.0039
 41
0.0039
  0
VERTEX
  8
LAYER1
 10
2.6944
 20
6.5295
 30
0
 70
     0
  0
VERTEX
  8
LAYER1
 10
2.6667
 20
6.5017
 30
0
 70
     0
  0
VERTEX
  8
LAYER1
 10
2.5972
 20
6.4739
 30
0
 70
     0
  0
VERTEX
  8
LAYER1
 10
2.5556
 20
6.4739
 30
0
 70
     0
  0
SEQEND
  0
ENDBLK
  8
LAYER1
  0
BLOCK
  8
LAYER1
  2
Group142
 70
     0
 10
0
 20
0
 30
0
  0
INSERT
  8
LAYER1
  2
Group140
 10
0
 20
0
 30
0
  0
INSERT
  8
LAYER1
  2
Group141
 10
0
 20
0
 30
0
  0
ENDBLK
  8
LAYER1
  0
BLOCK
  8
LAYER1
  2
Group143
 70
     0
 10
0
 20
0
 30
0
  0
LINE
  8
LAYER1
  6
CONTINUOUS
 62
     7
 10
2.0694
 20
3.1823
 30
0
 11
2.1389
 21
3.1823
 31
0
  0
LINE
  8
LAYER1
  6
CONTINUOUS
 62
     7
 10
2.0694
 20
3.2101
 30
0
 11
2.1389
 21
3.2101
 31
0
  0
LINE
  8
LAYER1
  6
CONTINUOUS
 62
     7
 10
2.0694
 20
3.2517
 30
0
 11
2.1389
 21
3.2517
 31
0
  0
LINE
  8
LAYER1
  6
CONTINUOUS
 62
     7
 10
2.0694
 20
3.2795
 30
0
 11
2.1389
 21
3.2795
 31
0
  0
POLYLINE
  8
LAYER1
  6
CONTINUOUS
 62
     7
 66
     1
 70
     0
 40
0.0019
 41
0.0019
  0
VERTEX
  8
LAYER1
 10
2.0694
 20
3.2795
 30
0
 70
     0
  0
VERTEX
  8
LAYER1
 10
2.0833
 20
3.2934
 30
0
 70
     0
  0
VERTEX
  8
LAYER1
 10
2.125
 20
3.2934
 30
0
 70
     0
  0
SEQEND
  0
LINE
  8
LAYER1
  6
CONTINUOUS
 62
     7
 10
2.1389
 20
3.2795
 30
0
 11
2.125
 21
3.2934
 31
0
  0
LINE
  8
LAYER1
  6
CONTINUOUS
 62
     7
 10
2.0694
 20
3.1545
 30
0
 11
2.1389
 21
3.1545
 31
0
  0
LINE
  8
LAYER1
  6
CONTINUOUS
 62
     7
 10
2.0694
 20
3.1267
 30
0
 11
2.1389
 21
3.1267
 31
0
  0
LINE
  8
LAYER1
  6
CONTINUOUS
 62
     7
 10
2.0694
 20
3.0989
 30
0
 11
2.1389
 21
3.0989
 31
0
  0
LINE
  8
LAYER1
  6
CONTINUOUS
 62
     7
 10
2.0694
 20
3.0989
 30
0
 11
2.0694
 21
3.2795
 31
0
  0
LINE
  8
LAYER1
  6
CONTINUOUS
 62
     7
 10
2.1389
 20
3.0989
 30
0
 11
2.1389
 21
3.2795
 31
0
  0
LINE
  8
LAYER1
  6
CONTINUOUS
 62
     7
 10
2.0694
 20
3.1128
 30
0
 11
2.1389
 21
3.1128
 31
0
  0
LINE
  8
LAYER1
  6
CONTINUOUS
 62
     7
 10
2.0694
 20
3.1406
 30
0
 11
2.1389
 21
3.1406
 31
0
  0
LINE
  8
LAYER1
  6
CONTINUOUS
 62
     7
 10
2.0694
 20
3.1684
 30
0
 11
2.1389
 21
3.1684
 31
0
  0
LINE
  8
LAYER1
  6
CONTINUOUS
 62
     7
 10
2.0694
 20
3.1962
 30
0
 11
2.1389
 21
3.1962
 31
0
  0
LINE
  8
LAYER1
  6
CONTINUOUS
 62
     7
 10
2.0694
 20
3.2378
 30
0
 11
2.1389
 21
3.2378
 31
0
  0
ENDBLK
  8
LAYER1
  0
BLOCK
  8
LAYER1
  2
Group144
 70
     0
 10
0
 20
0
 30
0
  0
LINE
  8
LAYER1
  6
CONTINUOUS
 62
     7
 10
2.0694
 20
3.2656
 30
0
 11
2.1389
 21
3.2656
 31
0
  0
POLYLINE
  8
LAYER1
  6
CONTINUOUS
 62
     7
 66
     1
 70
     0
 40
0.0019
 41
0.0019
  0
VERTEX
  8
LAYER1
 10
2.0972
 20
3.0295
 30
0
 70
     0
  0
VERTEX
  8
LAYER1
 10
2.0972
 20
3.0573
 30
0
 70
     0
  0
VERTEX
  8
LAYER1
 10
2.125
 20
3.0573
 30
0
 70
     0
  0
VERTEX
  8
LAYER1
 10
2.125
 20
3.0295
 30
0
 70
     0
  0
SEQEND
  0
LINE
  8
LAYER1
  6
CONTINUOUS
 62
     7
 10
2.0694
 20
3.0989
 30
0
 11
2.0278
 21
3.0573
 31
0
  0
POLYLINE
  8
LAYER1
  6
CONTINUOUS
 62
     7
 66
     1
 70
     0
 40
0.0019
 41
0.0019
  0
VERTEX
  8
LAYER1
 10
2.1389
 20
3.0989
 30
0
 70
     0
  0
VERTEX
  8
LAYER1
 10
2.1806
 20
3.0573
 30
0
 70
     0
  0
VERTEX
  8
LAYER1
 10
2.125
 20
3.0573
 30
0
 70
     0
  0
SEQEND
  0
LINE
  8
LAYER1
  6
CONTINUOUS
 62
     7
 10
2.0972
 20
3.0573
 30
0
 11
2.0278
 21
3.0573
 31
0
  0
POLYLINE
  8
LAYER1
  6
CONTINUOUS
 62
     7
 66
     1
 70
     0
 40
0.0019
 41
0.0019
  0
VERTEX
  8
LAYER1
 10
2.0972
 20
3.0295
 30
0
 70
     0
  0
VERTEX
  8
LAYER1
 10
2.0833
 20
3.0295
 30
0
 70
     0
  0
VERTEX
  8
LAYER1
 10
2.0417
 20
3.0434
 30
0
 70
     0
  0
VERTEX
  8
LAYER1
 10
2.0278
 20
3.0573
 30
0
 70
     0
  0
SEQEND
  0
POLYLINE
  8
LAYER1
  6
CONTINUOUS
 62
     7
 66
     1
 70
     0
 40
0.0019
 41
0.0019
  0
VERTEX
  8
LAYER1
 10
2.1806
 20
3.0573
 30
0
 70
     0
  0
VERTEX
  8
LAYER1
 10
2.1667
 20
3.0434
 30
0
 70
     0
  0
VERTEX
  8
LAYER1
 10
2.1389
 20
3.0295
 30
0
 70
     0
  0
VERTEX
  8
LAYER1
 10
2.125
 20
3.0295
 30
0
 70
     0
  0
SEQEND
  0
ENDBLK
  8
LAYER1
  0
BLOCK
  8
LAYER1
  2
Group145
 70
     0
 10
0
 20
0
 30
0
  0
INSERT
  8
LAYER1
  2
Group143
 10
0
 20
0
 30
0
  0
INSERT
  8
LAYER1
  2
Group144
 10
0
 20
0
 30
0
  0
ENDBLK
  8
LAYER1
  0
BLOCK
  8
LAYER1
  2
Group146
 70
     0
 10
0
 20
0
 30
0
  0
LINE
  8
LAYER1
  6
CONTINUOUS
 62
     7
 10
2.0694
 20
3.7378
 30
0
 11
2.1389
 21
3.7378
 31
0
  0
LINE
  8
LAYER1
  6
CONTINUOUS
 62
     7
 10
2.0694
 20
3.7656
 30
0
 11
2.1389
 21
3.7656
 31
0
  0
LINE
  8
LAYER1
  6
CONTINUOUS
 62
     7
 10
2.0694
 20
3.8073
 30
0
 11
2.1389
 21
3.8073
 31
0
  0
LINE
  8
LAYER1
  6
CONTINUOUS
 62
     7
 10
2.0694
 20
3.8351
 30
0
 11
2.1389
 21
3.8351
 31
0
  0
POLYLINE
  8
LAYER1
  6
CONTINUOUS
 62
     7
 66
     1
 70
     0
 40
0.0019
 41
0.0019
  0
VERTEX
  8
LAYER1
 10
2.0694
 20
3.8351
 30
0
 70
     0
  0
VERTEX
  8
LAYER1
 10
2.0833
 20
3.8489
 30
0
 70
     0
  0
VERTEX
  8
LAYER1
 10
2.125
 20
3.8489
 30
0
 70
     0
  0
SEQEND
  0
LINE
  8
LAYER1
  6
CONTINUOUS
 62
     7
 10
2.1389
 20
3.8351
 30
0
 11
2.125
 21
3.8489
 31
0
  0
LINE
  8
LAYER1
  6
CONTINUOUS
 62
     7
 10
2.0694
 20
3.7101
 30
0
 11
2.1389
 21
3.7101
 31
0
  0
LINE
  8
LAYER1
  6
CONTINUOUS
 62
     7
 10
2.0694
 20
3.6823
 30
0
 11
2.1389
 21
3.6823
 31
0
  0
LINE
  8
LAYER1
  6
CONTINUOUS
 62
     7
 10
2.0694
 20
3.5295
 30
0
 11
2.1389
 21
3.5295
 31
0
  0
LINE
  8
LAYER1
  6
CONTINUOUS
 62
     7
 10
2.0694
 20
3.6684
 30
0
 11
2.1389
 21
3.6684
 31
0
  0
LINE
  8
LAYER1
  6
CONTINUOUS
 62
     7
 10
2.0694
 20
3.6962
 30
0
 11
2.1389
 21
3.6962
 31
0
  0
LINE
  8
LAYER1
  6
CONTINUOUS
 62
     7
 10
2.0694
 20
3.7239
 30
0
 11
2.1389
 21
3.7239
 31
0
  0
LINE
  8
LAYER1
  6
CONTINUOUS
 62
     7
 10
2.0694
 20
3.7517
 30
0
 11
2.1389
 21
3.7517
 31
0
  0
LINE
  8
LAYER1
  6
CONTINUOUS
 62
     7
 10
2.0694
 20
3.7795
 30
0
 11
2.1389
 21
3.7795
 31
0
  0
LINE
  8
LAYER1
  6
CONTINUOUS
 62
     7
 10
2.0694
 20
3.8212
 30
0
 11
2.1389
 21
3.8212
 31
0
  0
LINE
  8
LAYER1
  6
CONTINUOUS
 62
     7
 10
2.0694
 20
3.5295
 30
0
 11
2.0694
 21
3.8351
 31
0
  0
LINE
  8
LAYER1
  6
CONTINUOUS
 62
     7
 10
2.1389
 20
3.5295
 30
0
 11
2.1389
 21
3.8351
 31
0
  0
LINE
  8
LAYER1
  6
CONTINUOUS
 62
     7
 10
2.0694
 20
3.6406
 30
0
 11
2.1389
 21
3.6406
 31
0
  0
LINE
  8
LAYER1
  6
CONTINUOUS
 62
     7
 10
2.0694
 20
3.6267
 30
0
 11
2.1389
 21
3.6267
 31
0
  0
LINE
  8
LAYER1
  6
CONTINUOUS
 62
     7
 10
2.0694
 20
3.6128
 30
0
 11
2.1389
 21
3.6128
 31
0
  0
LINE
  8
LAYER1
  6
CONTINUOUS
 62
     7
 10
2.0694
 20
3.5989
 30
0
 11
2.1389
 21
3.5989
 31
0
  0
LINE
  8
LAYER1
  6
CONTINUOUS
 62
     7
 10
2.0694
 20
3.5851
 30
0
 11
2.1389
 21
3.5851
 31
0
  0
LINE
  8
LAYER1
  6
CONTINUOUS
 62
     7
 10
2.0694
 20
3.5712
 30
0
 11
2.1389
 21
3.5712
 31
0
  0
LINE
  8
LAYER1
  6
CONTINUOUS
 62
     7
 10
2.0694
 20
3.5434
 30
0
 11
2.1389
 21
3.5434
 31
0
  0
ENDBLK
  8
LAYER1
  0
BLOCK
  8
LAYER1
  2
Group147
 70
     0
 10
0
 20
0
 30
0
  0
LINE
  8
LAYER1
  6
CONTINUOUS
 62
     7
 10
2.0694
 20
3.5434
 30
0
 11
2.1389
 21
3.5434
 31
0
  0
POLYLINE
  8
LAYER1
  6
CONTINUOUS
 62
     7
 66
     1
 70
     0
 40
0.0019
 41
0.0019
  0
VERTEX
  8
LAYER1
 10
2.0972
 20
3.4601
 30
0
 70
     0
  0
VERTEX
  8
LAYER1
 10
2.0972
 20
3.5017
 30
0
 70
     0
  0
VERTEX
  8
LAYER1
 10
2.125
 20
3.5017
 30
0
 70
     0
  0
VERTEX
  8
LAYER1
 10
2.125
 20
3.4601
 30
0
 70
     0
  0
SEQEND
  0
LINE
  8
LAYER1
  6
CONTINUOUS
 62
     7
 10
2.0694
 20
3.5295
 30
0
 11
2.0278
 21
3.4878
 31
0
  0
POLYLINE
  8
LAYER1
  6
CONTINUOUS
 62
     7
 66
     1
 70
     0
 40
0.0019
 41
0.0019
  0
VERTEX
  8
LAYER1
 10
2.1389
 20
3.5295
 30
0
 70
     0
  0
VERTEX
  8
LAYER1
 10
2.1806
 20
3.4878
 30
0
 70
     0
  0
VERTEX
  8
LAYER1
 10
2.125
 20
3.4878
 30
0
 70
     0
  0
SEQEND
  0
LINE
  8
LAYER1
  6
CONTINUOUS
 62
     7
 10
2.0972
 20
3.4878
 30
0
 11
2.0278
 21
3.4878
 31
0
  0
POLYLINE
  8
LAYER1
  6
CONTINUOUS
 62
     7
 66
     1
 70
     0
 40
0.0019
 41
0.0019
  0
VERTEX
  8
LAYER1
 10
2.0972
 20
3.4601
 30
0
 70
     0
  0
VERTEX
  8
LAYER1
 10
2.0833
 20
3.4601
 30
0
 70
     0
  0
VERTEX
  8
LAYER1
 10
2.0417
 20
3.4739
 30
0
 70
     0
  0
VERTEX
  8
LAYER1
 10
2.0278
 20
3.4878
 30
0
 70
     0
  0
SEQEND
  0
POLYLINE
  8
LAYER1
  6
CONTINUOUS
 62
     7
 66
     1
 70
     0
 40
0.0019
 41
0.0019
  0
VERTEX
  8
LAYER1
 10
2.1806
 20
3.4878
 30
0
 70
     0
  0
VERTEX
  8
LAYER1
 10
2.1667
 20
3.4739
 30
0
 70
     0
  0
VERTEX
  8
LAYER1
 10
2.1389
 20
3.4601
 30
0
 70
     0
  0
VERTEX
  8
LAYER1
 10
2.125
 20
3.4601
 30
0
 70
     0
  0
SEQEND
  0
ENDBLK
  8
LAYER1
  0
BLOCK
  8
LAYER1
  2
Group148
 70
     0
 10
0
 20
0
 30
0
  0
INSERT
  8
LAYER1
  2
Group146
 10
0
 20
0
 30
0
  0
INSERT
  8
LAYER1
  2
Group147
 10
0
 20
0
 30
0
  0
ENDBLK
  8
LAYER1
  0
BLOCK
  8
LAYER1
  2
Group149
 70
     0
 10
0
 20
0
 30
0
  0
LINE
  8
LAYER1
  6
CONTINUOUS
 62
     7
 10
2.0694
 20
4.1267
 30
0
 11
2.1389
 21
4.1267
 31
0
  0
POLYLINE
  8
LAYER1
  6
CONTINUOUS
 62
     7
 66
     1
 70
     0
 40
0.0019
 41
0.0019
  0
VERTEX
  8
LAYER1
 10
2.0972
 20
4.0434
 30
0
 70
     0
  0
VERTEX
  8
LAYER1
 10
2.0972
 20
4.0712
 30
0
 70
     0
  0
VERTEX
  8
LAYER1
 10
2.125
 20
4.0712
 30
0
 70
     0
  0
VERTEX
  8
LAYER1
 10
2.125
 20
4.0434
 30
0
 70
     0
  0
SEQEND
  0
LINE
  8
LAYER1
  6
CONTINUOUS
 62
     7
 10
2.0694
 20
4.1128
 30
0
 11
2.0278
 21
4.0573
 31
0
  0
POLYLINE
  8
LAYER1
  6
CONTINUOUS
 62
     7
 66
     1
 70
     0
 40
0.0019
 41
0.0019
  0
VERTEX
  8
LAYER1
 10
2.1389
 20
4.1128
 30
0
 70
     0
  0
VERTEX
  8
LAYER1
 10
2.1806
 20
4.0573
 30
0
 70
     0
  0
VERTEX
  8
LAYER1
 10
2.125
 20
4.0573
 30
0
 70
     0
  0
SEQEND
  0
LINE
  8
LAYER1
  6
CONTINUOUS
 62
     7
 10
2.0972
 20
4.0573
 30
0
 11
2.0278
 21
4.0573
 31
0
  0
POLYLINE
  8
LAYER1
  6
CONTINUOUS
 62
     7
 66
     1
 70
     0
 40
0.0019
 41
0.0019
  0
VERTEX
  8
LAYER1
 10
2.0972
 20
4.0434
 30
0
 70
     0
  0
VERTEX
  8
LAYER1
 10
2.0833
 20
4.0434
 30
0
 70
     0
  0
VERTEX
  8
LAYER1
 10
2.0417
 20
4.0434
 30
0
 70
     0
  0
VERTEX
  8
LAYER1
 10
2.0278
 20
4.0573
 30
0
 70
     0
  0
SEQEND
  0
POLYLINE
  8
LAYER1
  6
CONTINUOUS
 62
     7
 66
     1
 70
     0
 40
0.0019
 41
0.0019
  0
VERTEX
  8
LAYER1
 10
2.1806
 20
4.0573
 30
0
 70
     0
  0
VERTEX
  8
LAYER1
 10
2.1667
 20
4.0434
 30
0
 70
     0
  0
VERTEX
  8
LAYER1
 10
2.1389
 20
4.0434
 30
0
 70
     0
  0
VERTEX
  8
LAYER1
 10
2.125
 20
4.0434
 30
0
 70
     0
  0
SEQEND
  0
ENDBLK
  8
LAYER1
  0
BLOCK
  8
LAYER1
  2
Group150
 70
     0
 10
0
 20
0
 30
0
  0
LINE
  8
LAYER1
  6
CONTINUOUS
 62
     7
 10
2.0694
 20
4.3906
 30
0
 11
2.1389
 21
4.3906
 31
0
  0
LINE
  8
LAYER1
  6
CONTINUOUS
 62
     7
 10
2.0694
 20
4.4323
 30
0
 11
2.1389
 21
4.4323
 31
0
  0
LINE
  8
LAYER1
  6
CONTINUOUS
 62
     7
 10
2.0694
 20
4.4601
 30
0
 11
2.1389
 21
4.4601
 31
0
  0
LINE
  8
LAYER1
  6
CONTINUOUS
 62
     7
 10
2.0694
 20
4.4878
 30
0
 11
2.1389
 21
4.4878
 31
0
  0
POLYLINE
  8
LAYER1
  6
CONTINUOUS
 62
     7
 66
     1
 70
     0
 40
0.0019
 41
0.0019
  0
VERTEX
  8
LAYER1
 10
2.0694
 20
4.4878
 30
0
 70
     0
  0
VERTEX
  8
LAYER1
 10
2.0833
 20
4.5017
 30
0
 70
     0
  0
VERTEX
  8
LAYER1
 10
2.125
 20
4.5017
 30
0
 70
     0
  0
SEQEND
  0
LINE
  8
LAYER1
  6
CONTINUOUS
 62
     7
 10
2.1389
 20
4.4878
 30
0
 11
2.125
 21
4.5017
 31
0
  0
LINE
  8
LAYER1
  6
CONTINUOUS
 62
     7
 10
2.0694
 20
4.3628
 30
0
 11
2.1389
 21
4.3628
 31
0
  0
LINE
  8
LAYER1
  6
CONTINUOUS
 62
     7
 10
2.0694
 20
4.3351
 30
0
 11
2.1389
 21
4.3351
 31
0
  0
LINE
  8
LAYER1
  6
CONTINUOUS
 62
     7
 10
2.0694
 20
4.1128
 30
0
 11
2.1389
 21
4.1128
 31
0
  0
LINE
  8
LAYER1
  6
CONTINUOUS
 62
     7
 10
2.0694
 20
4.3212
 30
0
 11
2.1389
 21
4.3212
 31
0
  0
LINE
  8
LAYER1
  6
CONTINUOUS
 62
     7
 10
2.0694
 20
4.3489
 30
0
 11
2.1389
 21
4.3489
 31
0
  0
LINE
  8
LAYER1
  6
CONTINUOUS
 62
     7
 10
2.0694
 20
4.3767
 30
0
 11
2.1389
 21
4.3767
 31
0
  0
LINE
  8
LAYER1
  6
CONTINUOUS
 62
     7
 10
2.0694
 20
4.4045
 30
0
 11
2.1389
 21
4.4045
 31
0
  0
LINE
  8
LAYER1
  6
CONTINUOUS
 62
     7
 10
2.0694
 20
4.4462
 30
0
 11
2.1389
 21
4.4462
 31
0
  0
LINE
  8
LAYER1
  6
CONTINUOUS
 62
     7
 10
2.0694
 20
4.4739
 30
0
 11
2.1389
 21
4.4739
 31
0
  0
LINE
  8
LAYER1
  6
CONTINUOUS
 62
     7
 10
2.0694
 20
4.2934
 30
0
 11
2.1389
 21
4.2934
 31
0
  0
LINE
  8
LAYER1
  6
CONTINUOUS
 62
     7
 10
2.0694
 20
4.2934
 30
0
 11
2.1389
 21
4.2934
 31
0
  0
LINE
  8
LAYER1
  6
CONTINUOUS
 62
     7
 10
2.0694
 20
4.2656
 30
0
 11
2.1389
 21
4.2656
 31
0
  0
LINE
  8
LAYER1
  6
CONTINUOUS
 62
     7
 10
2.0694
 20
4.2517
 30
0
 11
2.1389
 21
4.2517
 31
0
  0
LINE
  8
LAYER1
  6
CONTINUOUS
 62
     7
 10
2.0694
 20
4.2378
 30
0
 11
2.1389
 21
4.2378
 31
0
  0
LINE
  8
LAYER1
  6
CONTINUOUS
 62
     7
 10
2.0694
 20
4.2239
 30
0
 11
2.1389
 21
4.2239
 31
0
  0
LINE
  8
LAYER1
  6
CONTINUOUS
 62
     7
 10
2.0694
 20
4.2101
 30
0
 11
2.1389
 21
4.2101
 31
0
  0
LINE
  8
LAYER1
  6
CONTINUOUS
 62
     7
 10
2.0694
 20
4.1962
 30
0
 11
2.1389
 21
4.1962
 31
0
  0
LINE
  8
LAYER1
  6
CONTINUOUS
 62
     7
 10
2.0694
 20
4.4878
 30
0
 11
2.0694
 21
4.1128
 31
0
  0
LINE
  8
LAYER1
  6
CONTINUOUS
 62
     7
 10
2.1389
 20
4.1128
 30
0
 11
2.1389
 21
4.4878
 31
0
  0
LINE
  8
LAYER1
  6
CONTINUOUS
 62
     7
 10
2.0694
 20
4.1684
 30
0
 11
2.1389
 21
4.1684
 31
0
  0
LINE
  8
LAYER1
  6
CONTINUOUS
 62
     7
 10
2.0694
 20
4.1684
 30
0
 11
2.1389
 21
4.1684
 31
0
  0
LINE
  8
LAYER1
  6
CONTINUOUS
 62
     7
 10
2.0694
 20
4.1406
 30
0
 11
2.1389
 21
4.1406
 31
0
  0
INSERT
  8
LAYER1
  2
Group149
 10
0
 20
0
 30
0
  0
ENDBLK
  8
LAYER1
  0
BLOCK
  8
LAYER1
  2
Group151
 70
     0
 10
0
 20
0
 30
0
  0
LINE
  8
LAYER1
  6
CONTINUOUS
 62
     7
 10
2.0694
 20
5.1823
 30
0
 11
2.1389
 21
5.1823
 31
0
  0
LINE
  8
LAYER1
  6
CONTINUOUS
 62
     7
 10
2.0694
 20
5.2101
 30
0
 11
2.1389
 21
5.2101
 31
0
  0
LINE
  8
LAYER1
  6
CONTINUOUS
 62
     7
 10
2.0694
 20
5.2517
 30
0
 11
2.1389
 21
5.2517
 31
0
  0
LINE
  8
LAYER1
  6
CONTINUOUS
 62
     7
 10
2.0694
 20
5.2795
 30
0
 11
2.1389
 21
5.2795
 31
0
  0
POLYLINE
  8
LAYER1
  6
CONTINUOUS
 62
     7
 66
     1
 70
     0
 40
0.0019
 41
0.0019
  0
VERTEX
  8
LAYER1
 10
2.0694
 20
5.2795
 30
0
 70
     0
  0
VERTEX
  8
LAYER1
 10
2.0833
 20
5.2934
 30
0
 70
     0
  0
VERTEX
  8
LAYER1
 10
2.125
 20
5.2934
 30
0
 70
     0
  0
SEQEND
  0
LINE
  8
LAYER1
  6
CONTINUOUS
 62
     7
 10
2.1389
 20
5.2795
 30
0
 11
2.125
 21
5.2934
 31
0
  0
LINE
  8
LAYER1
  6
CONTINUOUS
 62
     7
 10
2.0694
 20
5.1545
 30
0
 11
2.1389
 21
5.1545
 31
0
  0
LINE
  8
LAYER1
  6
CONTINUOUS
 62
     7
 10
2.0694
 20
5.1267
 30
0
 11
2.1389
 21
5.1267
 31
0
  0
LINE
  8
LAYER1
  6
CONTINUOUS
 62
     7
 10
2.0694
 20
4.9045
 30
0
 11
2.1389
 21
4.9045
 31
0
  0
LINE
  8
LAYER1
  6
CONTINUOUS
 62
     7
 10
2.0694
 20
5.0989
 30
0
 11
2.1389
 21
5.0989
 31
0
  0
LINE
  8
LAYER1
  6
CONTINUOUS
 62
     7
 10
2.0694
 20
5.1406
 30
0
 11
2.1389
 21
5.1406
 31
0
  0
LINE
  8
LAYER1
  6
CONTINUOUS
 62
     7
 10
2.0694
 20
5.1684
 30
0
 11
2.1389
 21
5.1684
 31
0
  0
LINE
  8
LAYER1
  6
CONTINUOUS
 62
     7
 10
2.0694
 20
5.1962
 30
0
 11
2.1389
 21
5.1962
 31
0
  0
LINE
  8
LAYER1
  6
CONTINUOUS
 62
     7
 10
2.0694
 20
5.2239
 30
0
 11
2.1389
 21
5.2239
 31
0
  0
LINE
  8
LAYER1
  6
CONTINUOUS
 62
     7
 10
2.0694
 20
5.2656
 30
0
 11
2.1389
 21
5.2656
 31
0
  0
LINE
  8
LAYER1
  6
CONTINUOUS
 62
     7
 10
2.0694
 20
5.0851
 30
0
 11
2.1389
 21
5.0851
 31
0
  0
LINE
  8
LAYER1
  6
CONTINUOUS
 62
     7
 10
2.0694
 20
5.0712
 30
0
 11
2.1389
 21
5.0712
 31
0
  0
LINE
  8
LAYER1
  6
CONTINUOUS
 62
     7
 10
2.0694
 20
5.0573
 30
0
 11
2.1389
 21
5.0573
 31
0
  0
LINE
  8
LAYER1
  6
CONTINUOUS
 62
     7
 10
2.0694
 20
5.0434
 30
0
 11
2.1389
 21
5.0434
 31
0
  0
LINE
  8
LAYER1
  6
CONTINUOUS
 62
     7
 10
2.0694
 20
5.0295
 30
0
 11
2.1389
 21
5.0295
 31
0
  0
LINE
  8
LAYER1
  6
CONTINUOUS
 62
     7
 10
2.0694
 20
5.0156
 30
0
 11
2.1389
 21
5.0156
 31
0
  0
LINE
  8
LAYER1
  6
CONTINUOUS
 62
     7
 10
2.0694
 20
4.9878
 30
0
 11
2.1389
 21
4.9878
 31
0
  0
LINE
  8
LAYER1
  6
CONTINUOUS
 62
     7
 10
2.0694
 20
4.9739
 30
0
 11
2.1389
 21
4.9739
 31
0
  0
LINE
  8
LAYER1
  6
CONTINUOUS
 62
     7
 10
2.0694
 20
5.2795
 30
0
 11
2.0694
 21
4.8212
 31
0
  0
LINE
  8
LAYER1
  6
CONTINUOUS
 62
     7
 10
2.1389
 20
4.8212
 30
0
 11
2.1389
 21
5.2795
 31
0
  0
LINE
  8
LAYER1
  6
CONTINUOUS
 62
     7
 10
2.0694
 20
4.9601
 30
0
 11
2.1389
 21
4.9601
 31
0
  0
LINE
  8
LAYER1
  6
CONTINUOUS
 62
     7
 10
2.0694
 20
4.9462
 30
0
 11
2.1389
 21
4.9462
 31
0
  0
LINE
  8
LAYER1
  6
CONTINUOUS
 62
     7
 10
2.0694
 20
4.9323
 30
0
 11
2.1389
 21
4.9323
 31
0
  0
LINE
  8
LAYER1
  6
CONTINUOUS
 62
     7
 10
2.0694
 20
4.9184
 30
0
 11
2.1389
 21
4.9184
 31
0
  0
LINE
  8
LAYER1
  6
CONTINUOUS
 62
     7
 10
2.0694
 20
4.8212
 30
0
 11
2.1389
 21
4.8212
 31
0
  0
LINE
  8
LAYER1
  6
CONTINUOUS
 62
     7
 10
2.0694
 20
4.8628
 30
0
 11
2.1389
 21
4.8628
 31
0
  0
LINE
  8
LAYER1
  6
CONTINUOUS
 62
     7
 10
2.0694
 20
4.8906
 30
0
 11
2.1389
 21
4.8906
 31
0
  0
LINE
  8
LAYER1
  6
CONTINUOUS
 62
     7
 10
2.0694
 20
4.8351
 30
0
 11
2.1389
 21
4.8351
 31
0
  0
ENDBLK
  8
LAYER1
  0
BLOCK
  8
LAYER1
  2
Group152
 70
     0
 10
0
 20
0
 30
0
  0
LINE
  8
LAYER1
  6
CONTINUOUS
 62
     7
 10
2.0694
 20
4.8489
 30
0
 11
2.1389
 21
4.8489
 31
0
  0
POLYLINE
  8
LAYER1
  6
CONTINUOUS
 62
     7
 66
     1
 70
     0
 40
0.0019
 41
0.0019
  0
VERTEX
  8
LAYER1
 10
2.0972
 20
4.7517
 30
0
 70
     0
  0
VERTEX
  8
LAYER1
 10
2.0972
 20
4.7795
 30
0
 70
     0
  0
VERTEX
  8
LAYER1
 10
2.125
 20
4.7795
 30
0
 70
     0
  0
VERTEX
  8
LAYER1
 10
2.125
 20
4.7517
 30
0
 70
     0
  0
SEQEND
  0
LINE
  8
LAYER1
  6
CONTINUOUS
 62
     7
 10
2.0694
 20
4.8212
 30
0
 11
2.0278
 21
4.7795
 31
0
  0
POLYLINE
  8
LAYER1
  6
CONTINUOUS
 62
     7
 66
     1
 70
     0
 40
0.0019
 41
0.0019
  0
VERTEX
  8
LAYER1
 10
2.1389
 20
4.8212
 30
0
 70
     0
  0
VERTEX
  8
LAYER1
 10
2.1806
 20
4.7795
 30
0
 70
     0
  0
VERTEX
  8
LAYER1
 10
2.125
 20
4.7795
 30
0
 70
     0
  0
SEQEND
  0
LINE
  8
LAYER1
  6
CONTINUOUS
 62
     7
 10
2.0972
 20
4.7795
 30
0
 11
2.0278
 21
4.7795
 31
0
  0
POLYLINE
  8
LAYER1
  6
CONTINUOUS
 62
     7
 66
     1
 70
     0
 40
0.0019
 41
0.0019
  0
VERTEX
  8
LAYER1
 10
2.0972
 20
4.7517
 30
0
 70
     0
  0
VERTEX
  8
LAYER1
 10
2.0833
 20
4.7517
 30
0
 70
     0
  0
VERTEX
  8
LAYER1
 10
2.0417
 20
4.7656
 30
0
 70
     0
  0
VERTEX
  8
LAYER1
 10
2.0278
 20
4.7795
 30
0
 70
     0
  0
SEQEND
  0
POLYLINE
  8
LAYER1
  6
CONTINUOUS
 62
     7
 66
     1
 70
     0
 40
0.0019
 41
0.0019
  0
VERTEX
  8
LAYER1
 10
2.1806
 20
4.7795
 30
0
 70
     0
  0
VERTEX
  8
LAYER1
 10
2.1667
 20
4.7656
 30
0
 70
     0
  0
VERTEX
  8
LAYER1
 10
2.1389
 20
4.7517
 30
0
 70
     0
  0
VERTEX
  8
LAYER1
 10
2.125
 20
4.7517
 30
0
 70
     0
  0
SEQEND
  0
ENDBLK
  8
LAYER1
  0
BLOCK
  8
LAYER1
  2
Group153
 70
     0
 10
0
 20
0
 30
0
  0
INSERT
  8
LAYER1
  2
Group151
 10
0
 20
0
 30
0
  0
INSERT
  8
LAYER1
  2
Group152
 10
0
 20
0
 30
0
  0
ENDBLK
  8
LAYER1
  0
BLOCK
  8
LAYER1
  2
Group154
 70
     0
 10
0
 20
0
 30
0
  0
LINE
  8
LAYER1
  6
CONTINUOUS
 62
     7
 10
2.0694
 20
6.0712
 30
0
 11
2.1389
 21
6.0712
 31
0
  0
LINE
  8
LAYER1
  6
CONTINUOUS
 62
     7
 10
2.0694
 20
6.0989
 30
0
 11
2.1389
 21
6.0989
 31
0
  0
LINE
  8
LAYER1
  6
CONTINUOUS
 62
     7
 10
2.0694
 20
6.1267
 30
0
 11
2.1389
 21
6.1267
 31
0
  0
LINE
  8
LAYER1
  6
CONTINUOUS
 62
     7
 10
2.0694
 20
6.1545
 30
0
 11
2.1389
 21
6.1545
 31
0
  0
POLYLINE
  8
LAYER1
  6
CONTINUOUS
 62
     7
 66
     1
 70
     0
 40
0.0019
 41
0.0019
  0
VERTEX
  8
LAYER1
 10
2.0694
 20
6.1545
 30
0
 70
     0
  0
VERTEX
  8
LAYER1
 10
2.0833
 20
6.1684
 30
0
 70
     0
  0
VERTEX
  8
LAYER1
 10
2.125
 20
6.1684
 30
0
 70
     0
  0
SEQEND
  0
LINE
  8
LAYER1
  6
CONTINUOUS
 62
     7
 10
2.1389
 20
6.1545
 30
0
 11
2.125
 21
6.1684
 31
0
  0
LINE
  8
LAYER1
  6
CONTINUOUS
 62
     7
 10
2.0694
 20
6.0295
 30
0
 11
2.1389
 21
6.0295
 31
0
  0
LINE
  8
LAYER1
  6
CONTINUOUS
 62
     7
 10
2.0694
 20
6.0017
 30
0
 11
2.1389
 21
6.0017
 31
0
  0
LINE
  8
LAYER1
  6
CONTINUOUS
 62
     7
 10
2.0694
 20
5.7795
 30
0
 11
2.1389
 21
5.7795
 31
0
  0
LINE
  8
LAYER1
  6
CONTINUOUS
 62
     7
 10
2.0694
 20
5.9878
 30
0
 11
2.1389
 21
5.9878
 31
0
  0
LINE
  8
LAYER1
  6
CONTINUOUS
 62
     7
 10
2.0694
 20
6.0156
 30
0
 11
2.1389
 21
6.0156
 31
0
  0
LINE
  8
LAYER1
  6
CONTINUOUS
 62
     7
 10
2.0694
 20
6.0434
 30
0
 11
2.1389
 21
6.0434
 31
0
  0
LINE
  8
LAYER1
  6
CONTINUOUS
 62
     7
 10
2.0694
 20
6.0851
 30
0
 11
2.1389
 21
6.0851
 31
0
  0
LINE
  8
LAYER1
  6
CONTINUOUS
 62
     7
 10
2.0694
 20
6.1128
 30
0
 11
2.1389
 21
6.1128
 31
0
  0
LINE
  8
LAYER1
  6
CONTINUOUS
 62
     7
 10
2.0694
 20
6.1406
 30
0
 11
2.1389
 21
6.1406
 31
0
  0
LINE
  8
LAYER1
  6
CONTINUOUS
 62
     7
 10
2.0694
 20
5.9739
 30
0
 11
2.1389
 21
5.9739
 31
0
  0
LINE
  8
LAYER1
  6
CONTINUOUS
 62
     7
 10
2.0694
 20
5.9601
 30
0
 11
2.1389
 21
5.9601
 31
0
  0
LINE
  8
LAYER1
  6
CONTINUOUS
 62
     7
 10
2.0694
 20
5.9323
 30
0
 11
2.1389
 21
5.9323
 31
0
  0
LINE
  8
LAYER1
  6
CONTINUOUS
 62
     7
 10
2.0694
 20
5.9184
 30
0
 11
2.1389
 21
5.9184
 31
0
  0
LINE
  8
LAYER1
  6
CONTINUOUS
 62
     7
 10
2.0694
 20
5.9045
 30
0
 11
2.1389
 21
5.9045
 31
0
  0
LINE
  8
LAYER1
  6
CONTINUOUS
 62
     7
 10
2.0694
 20
5.8906
 30
0
 11
2.1389
 21
5.8906
 31
0
  0
LINE
  8
LAYER1
  6
CONTINUOUS
 62
     7
 10
2.0694
 20
5.8767
 30
0
 11
2.1389
 21
5.8767
 31
0
  0
LINE
  8
LAYER1
  6
CONTINUOUS
 62
     7
 10
2.0694
 20
5.8628
 30
0
 11
2.1389
 21
5.8628
 31
0
  0
LINE
  8
LAYER1
  6
CONTINUOUS
 62
     7
 10
2.0694
 20
5.8489
 30
0
 11
2.1389
 21
5.8489
 31
0
  0
LINE
  8
LAYER1
  6
CONTINUOUS
 62
     7
 10
2.0694
 20
5.8212
 30
0
 11
2.1389
 21
5.8212
 31
0
  0
LINE
  8
LAYER1
  6
CONTINUOUS
 62
     7
 10
2.0694
 20
5.8073
 30
0
 11
2.1389
 21
5.8073
 31
0
  0
LINE
  8
LAYER1
  6
CONTINUOUS
 62
     7
 10
2.0694
 20
5.7934
 30
0
 11
2.1389
 21
5.7934
 31
0
  0
LINE
  8
LAYER1
  6
CONTINUOUS
 62
     7
 10
2.0694
 20
5.7517
 30
0
 11
2.1389
 21
5.7517
 31
0
  0
LINE
  8
LAYER1
  6
CONTINUOUS
 62
     7
 10
2.0694
 20
5.7656
 30
0
 11
2.1389
 21
5.7656
 31
0
  0
LINE
  8
LAYER1
  6
CONTINUOUS
 62
     7
 10
2.0694
 20
5.7239
 30
0
 11
2.1389
 21
5.7239
 31
0
  0
LINE
  8
LAYER1
  6
CONTINUOUS
 62
     7
 10
2.0694
 20
5.7378
 30
0
 11
2.1389
 21
5.7378
 31
0
  0
LINE
  8
LAYER1
  6
CONTINUOUS
 62
     7
 10
2.0694
 20
5.6267
 30
0
 11
2.1389
 21
5.6267
 31
0
  0
LINE
  8
LAYER1
  6
CONTINUOUS
 62
     7
 10
2.0694
 20
5.6823
 30
0
 11
2.1389
 21
5.6823
 31
0
  0
LINE
  8
LAYER1
  6
CONTINUOUS
 62
     7
 10
2.0694
 20
5.6962
 30
0
 11
2.1389
 21
5.6962
 31
0
  0
LINE
  8
LAYER1
  6
CONTINUOUS
 62
     7
 10
2.0694
 20
5.6545
 30
0
 11
2.1389
 21
5.6545
 31
0
  0
LINE
  8
LAYER1
  6
CONTINUOUS
 62
     7
 10
2.0694
 20
5.6684
 30
0
 11
2.1389
 21
5.6684
 31
0
  0
LINE
  8
LAYER1
  6
CONTINUOUS
 62
     7
 10
2.0694
 20
5.6267
 30
0
 11
2.1389
 21
5.6267
 31
0
  0
LINE
  8
LAYER1
  6
CONTINUOUS
 62
     7
 10
2.0694
 20
5.6406
 30
0
 11
2.1389
 21
5.6406
 31
0
  0
LINE
  8
LAYER1
  6
CONTINUOUS
 62
     7
 10
2.0694
 20
5.6267
 30
0
 11
2.0694
 21
6.1545
 31
0
  0
ENDBLK
  8
LAYER1
  0
BLOCK
  8
LAYER1
  2
Group155
 70
     0
 10
0
 20
0
 30
0
  0
LINE
  8
LAYER1
  6
CONTINUOUS
 62
     7
 10
2.1389
 20
5.6267
 30
0
 11
2.1389
 21
6.1545
 31
0
  0
POLYLINE
  8
LAYER1
  6
CONTINUOUS
 62
     7
 66
     1
 70
     0
 40
0.0019
 41
0.0019
  0
VERTEX
  8
LAYER1
 10
2.0972
 20
5.5573
 30
0
 70
     0
  0
VERTEX
  8
LAYER1
 10
2.0972
 20
5.5851
 30
0
 70
     0
  0
VERTEX
  8
LAYER1
 10
2.125
 20
5.5851
 30
0
 70
     0
  0
VERTEX
  8
LAYER1
 10
2.125
 20
5.5573
 30
0
 70
     0
  0
SEQEND
  0
LINE
  8
LAYER1
  6
CONTINUOUS
 62
     7
 10
2.0694
 20
5.6267
 30
0
 11
2.0278
 21
5.5712
 31
0
  0
POLYLINE
  8
LAYER1
  6
CONTINUOUS
 62
     7
 66
     1
 70
     0
 40
0.0019
 41
0.0019
  0
VERTEX
  8
LAYER1
 10
2.1389
 20
5.6267
 30
0
 70
     0
  0
VERTEX
  8
LAYER1
 10
2.1806
 20
5.5712
 30
0
 70
     0
  0
VERTEX
  8
LAYER1
 10
2.125
 20
5.5712
 30
0
 70
     0
  0
SEQEND
  0
LINE
  8
LAYER1
  6
CONTINUOUS
 62
     7
 10
2.0972
 20
5.5712
 30
0
 11
2.0278
 21
5.5712
 31
0
  0
POLYLINE
  8
LAYER1
  6
CONTINUOUS
 62
     7
 66
     1
 70
     0
 40
0.0019
 41
0.0019
  0
VERTEX
  8
LAYER1
 10
2.0972
 20
5.5573
 30
0
 70
     0
  0
VERTEX
  8
LAYER1
 10
2.0833
 20
5.5573
 30
0
 70
     0
  0
VERTEX
  8
LAYER1
 10
2.0417
 20
5.5573
 30
0
 70
     0
  0
VERTEX
  8
LAYER1
 10
2.0278
 20
5.5712
 30
0
 70
     0
  0
SEQEND
  0
POLYLINE
  8
LAYER1
  6
CONTINUOUS
 62
     7
 66
     1
 70
     0
 40
0.0019
 41
0.0019
  0
VERTEX
  8
LAYER1
 10
2.1806
 20
5.5712
 30
0
 70
     0
  0
VERTEX
  8
LAYER1
 10
2.1667
 20
5.5573
 30
0
 70
     0
  0
VERTEX
  8
LAYER1
 10
2.1389
 20
5.5573
 30
0
 70
     0
  0
VERTEX
  8
LAYER1
 10
2.125
 20
5.5573
 30
0
 70
     0
  0
SEQEND
  0
ENDBLK
  8
LAYER1
  0
BLOCK
  8
LAYER1
  2
Group156
 70
     0
 10
0
 20
0
 30
0
  0
INSERT
  8
LAYER1
  2
Group154
 10
0
 20
0
 30
0
  0
INSERT
  8
LAYER1
  2
Group155
 10
0
 20
0
 30
0
  0
ENDBLK
  8
LAYER1
  0
BLOCK
  8
LAYER1
  2
Group157
 70
     0
 10
0
 20
0
 30
0
  0
TEXT
  8
LAYER1
 62
     7
 10
2.584
 20
0.0493
 30
0
 40
0.1389
  1
- 4-265 -
 50
0
999
Geneva
  0
TEXT
  8
LAYER1
 62
     7
 10
10.959
 20
0.0493
 30
0
 40
0.1389
  1
- 4-266 -
 50
0
999
Geneva
  0
TEXT
  8
LAYER1
 62
     7
 10
0.4034
 20
10.5493
 30
0
 40
0.125
  1
Oval Head - Metric Various Lengths/Diameters
 50
0
999
Geneva
  0
LINE
  8
LAYER1
  6
CONTINUOUS
 62
     7
 10
0.4028
 20
10.7934
 30
0
 11
5.2222
 21
10.7934
 31
0
  0
TEXT
  8
LAYER1
 62
     7
 10
11.0562
 20
3.3132
 30
0
 40
0.0972
  1
36
 50
0
999
Geneva
  0
TEXT
  8
LAYER1
 62
     7
 10
11.0562
 20
5.4243
 30
0
 40
0.0972
  1
42
 50
0
999
Geneva
  0
TEXT
  8
LAYER1
 62
     7
 10
11.0562
 20
8.0771
 30
0
 40
0.0972
  1
48
 50
0
999
Geneva
  0
TEXT
  8
LAYER1
 62
     7
 10
11.2784
 20
1.9243
 30
0
 40
0.0972
  1
M5 x 0.8
 50
0
999
Geneva
  0
TEXT
  8
LAYER1
 62
     7
 10
11.8479
 20
1.6326
 30
0
 40
0.0972
  1
M6 x 1
 50
0
999
Geneva
  0
TEXT
  8
LAYER1
 62
     7
 10
12.334
 20
1.9243
 30
0
 40
0.0972
  1
M8 x 1.25
 50
0
999
Geneva
  0
TEXT
  8
LAYER1
 62
     7
 10
13.0562
 20
1.6326
 30
0
 40
0.0972
  1
M10 x 1.5
 50
0
999
Geneva
  0
LINE
  8
LAYER1
  6
CONTINUOUS
 62
     7
 10
0.4167
 20
10.4878
 30
0
 11
5.2639
 21
10.4878
 31
0
  0
TEXT
  8
LAYER1
 62
     7
 10
9.459
 20
10.1604
 30
0
 40
0.1389
  1
LENGTH (mm)
 50
0
999
Geneva
  0
TEXT
  8
LAYER1
 62
     7
 10
0.084
 20
10.2715
 30
0
 40
0.1389
  1
LENGTH (mm)
 50
0
999
Geneva
  0
TEXT
  8
LAYER1
 62
     7
 10
1.7923
 20
2.1743
 30
0
 40
0.0972
  1
M2 x 0.4
 50
0
999
Geneva
  0
TEXT
  8
LAYER1
 62
     7
 10
2.209
 20
1.8688
 30
0
 40
0.0972
  1
M4 x 0.7
 50
0
999
Geneva
  0
TEXT
  8
LAYER1
 62
     7
 10
2.7506
 20
2.1743
 30
0
 40
0.0972
  1
M5 x 0.8
 50
0
999
Geneva
  0
TEXT
  8
LAYER1
 62
     7
 10
3.4173
 20
1.8688
 30
0
 40
0.0972
  1
M6 x 1
 50
0
999
Geneva
  0
TEXT
  8
LAYER1
 62
     7
 10
4.0145
 20
2.1743
 30
0
 40
0.0972
  1
M8 x 1.25
 50
0
999
Geneva
  0
TEXT
  8
LAYER1
 62
     7
 10
4.8479
 20
1.8688
 30
0
 40
0.0972
  1
M10 x 1.5
 50
0
999
Geneva
  0
TEXT
  8
LAYER1
 62
     7
 10
1.6395
 20
3.7576
 30
0
 40
0.0972
  1
8
 50
0
999
Geneva
  0
TEXT
  8
LAYER1
 62
     7
 10
1.584
 20
4.3688
 30
0
 40
0.0972
  1
10
 50
0
999
Geneva
  0
TEXT
  8
LAYER1
 62
     7
 10
1.584
 20
5.966
 30
0
 40
0.0972
  1
14
 50
0
999
Geneva
  0
TEXT
  8
LAYER1
 62
     7
 10
1.584
 20
6.966
 30
0
 40
0.0972
  1
16
 50
0
999
Geneva
  0
TEXT
  8
LAYER1
 62
     7
 10
1.584
 20
8.0354
 30
0
 40
0.0972
  1
20
 50
0
999
Geneva
  0
TEXT
  8
LAYER1
 62
     7
 10
1.584
 20
9.2715
 30
0
 40
0.0972
  1
24
 50
0
999
Geneva
  0
POLYLINE
  8
LAYER1
  6
CONTINUOUS
 62
     7
 66
     1
 70
     0
 40
0.0039
 41
0.0039
  0
VERTEX
  8
LAYER1
 10
13.7222
 20
2.0712
 30
0
 70
     0
  0
VERTEX
  8
LAYER1
 10
11.3056
 20
2.0712
 30
0
 70
     0
  0
VERTEX
  8
LAYER1
 10
11.3056
 20
9.7239
 30
0
 70
     0
  0
SEQEND
  0
INSERT
  8
LAYER1
  2
Group1
 10
0
 20
0
 30
0
  0
INSERT
  8
LAYER1
  2
Group2
 10
0
 20
0
 30
0
  0
TEXT
  8
LAYER1
 62
     7
 10
1.6395
 20
2.7715
 30
0
 40
0.0972
  1
3
 50
0
999
Geneva
  0
TEXT
  8
LAYER1
 62
     7
 10
1.6256
 20
3.2576
 30
0
 40
0.0972
  1
5
 50
0
999
Geneva
  0
TEXT
  8
LAYER1
 62
     7
 10
1.584
 20
5.1188
 30
0
 40
0.0972
  1
12
 50
0
999
Geneva
  0
INSERT
  8
LAYER1
  2
Group3
 10
0
 20
0
 30
0
  0
INSERT
  8
LAYER1
  2
Group4
 10
0
 20
0
 30
0
  0
TEXT
  8
LAYER1
 62
     7
 10
8.709
 20
10.5493
 30
0
 40
0.125
  1
Oval Head - Metric Various Lengths/Diameters
 50
0
999
Geneva
  0
POLYLINE
  8
LAYER1
  6
CONTINUOUS
 62
     7
 66
     1
 70
     0
 40
0.0139
 41
0.0139
  0
VERTEX
  8
LAYER1
 10
5.3472
 20
2.3767
 30
0
 70
     0
  0
VERTEX
  8
LAYER1
 10
1.9306
 20
2.3767
 30
0
 70
     0
  0
VERTEX
  8
LAYER1
 10
1.9306
 20
10.0156
 30
0
 70
     0
  0
SEQEND
  0
LINE
  8
LAYER1
  6
CONTINUOUS
 62
     7
 10
8.7083
 20
10.7934
 30
0
 11
13.5278
 21
10.7934
 31
0
  0
INSERT
  8
LAYER1
  2
Group7
 10
0
 20
0
 30
0
  0
INSERT
  8
LAYER1
  2
Group8
 10
0
 20
0
 30
0
  0
INSERT
  8
LAYER1
  2
Group11
 10
0
 20
0
 30
0
  0
INSERT
  8
LAYER1
  2
Group12
 10
0
 20
0
 30
0
  0
INSERT
  8
LAYER1
  2
Group16
 10
0
 20
0
 30
0
  0
INSERT
  8
LAYER1
  2
Group17
 10
0
 20
0
 30
0
  0
INSERT
  8
LAYER1
  2
Group20
 10
0
 20
0
 30
0
  0
INSERT
  8
LAYER1
  2
Group21
 10
0
 20
0
 30
0
  0
INSERT
  8
LAYER1
  2
Group24
 10
0
 20
0
 30
0
  0
INSERT
  8
LAYER1
  2
Group25
 10
0
 20
0
 30
0
  0
INSERT
  8
LAYER1
  2
Group27
 10
0
 20
0
 30
0
  0
INSERT
  8
LAYER1
  2
Group28
 10
0
 20
0
 30
0
  0
INSERT
  8
LAYER1
  2
Group31
 10
0
 20
0
 30
0
  0
INSERT
  8
LAYER1
  2
Group34
 10
0
 20
0
 30
0
  0
INSERT
  8
LAYER1
  2
Group37
 10
0
 20
0
 30
0
  0
INSERT
  8
LAYER1
  2
Group40
 10
0
 20
0
 30
0
  0
INSERT
  8
LAYER1
  2
Group43
 10
0
 20
0
 30
0
  0
INSERT
  8
LAYER1
  2
Group46
 10
0
 20
0
 30
0
  0
INSERT
  8
LAYER1
  2
Group49
 10
0
 20
0
 30
0
  0
INSERT
  8
LAYER1
  2
Group52
 10
0
 20
0
 30
0
  0
INSERT
  8
LAYER1
  2
Group55
 10
0
 20
0
 30
0
  0
INSERT
  8
LAYER1
  2
Group58
 10
0
 20
0
 30
0
  0
INSERT
  8
LAYER1
  2
Group61
 10
0
 20
0
 30
0
  0
INSERT
  8
LAYER1
  2
Group64
 10
0
 20
0
 30
0
  0
INSERT
  8
LAYER1
  2
Group67
 10
0
 20
0
 30
0
  0
INSERT
  8
LAYER1
  2
Group70
 10
0
 20
0
 30
0
  0
INSERT
  8
LAYER1
  2
Group74
 10
0
 20
0
 30
0
  0
INSERT
  8
LAYER1
  2
Group78
 10
0
 20
0
 30
0
  0
INSERT
  8
LAYER1
  2
Group82
 10
0
 20
0
 30
0
  0
INSERT
  8
LAYER1
  2
Group86
 10
0
 20
0
 30
0
  0
INSERT
  8
LAYER1
  2
Group90
 10
0
 20
0
 30
0
  0
INSERT
  8
LAYER1
  2
Group94
 10
0
 20
0
 30
0
  0
INSERT
  8
LAYER1
  2
Group98
 10
0
 20
0
 30
0
  0
INSERT
  8
LAYER1
  2
Group102
 10
0
 20
0
 30
0
  0
INSERT
  8
LAYER1
  2
Group105
 10
0
 20
0
 30
0
  0
INSERT
  8
LAYER1
  2
Group108
 10
0
 20
0
 30
0
  0
INSERT
  8
LAYER1
  2
Group111
 10
0
 20
0
 30
0
  0
INSERT
  8
LAYER1
  2
Group115
 10
0
 20
0
 30
0
  0
INSERT
  8
LAYER1
  2
Group119
 10
0
 20
0
 30
0
  0
INSERT
  8
LAYER1
  2
Group123
 10
0
 20
0
 30
0
  0
INSERT
  8
LAYER1
  2
Group127
 10
0
 20
0
 30
0
  0
INSERT
  8
LAYER1
  2
Group130
 10
0
 20
0
 30
0
  0
INSERT
  8
LAYER1
  2
Group133
 10
0
 20
0
 30
0
  0
INSERT
  8
LAYER1
  2
Group136
 10
0
 20
0
 30
0
  0
INSERT
  8
LAYER1
  2
Group139
 10
0
 20
0
 30
0
  0
INSERT
  8
LAYER1
  2
Group142
 10
0
 20
0
 30
0
  0
INSERT
  8
LAYER1
  2
Group145
 10
0
 20
0
 30
0
  0
INSERT
  8
LAYER1
  2
Group148
 10
0
 20
0
 30
0
  0
INSERT
  8
LAYER1
  2
Group150
 10
0
 20
0
 30
0
  0
INSERT
  8
LAYER1
  2
Group153
 10
0
 20
0
 30
0
  0
INSERT
  8
LAYER1
  2
Group156
 10
0
 20
0
 30
0
  0
TEXT
  8
LAYER1
 62
     7
 10
2.1885
 20
2.4885
 30
0
 40
0.0833
  1
54700
 50
89.9
999
Geneva
  0
TEXT
  8
LAYER1
 62
     7
 10
2.1885
 20
2.9607
 30
0
 40
0.0833
  1
54701
 50
89.9
999
Geneva
  0
TEXT
  8
LAYER1
 62
     7
 10
2.1885
 20
3.4607
 30
0
 40
0.0833
  1
54702
 50
89.9
999
Geneva
  0
TEXT
  8
LAYER1
 62
     7
 10
2.1885
 20
4.0718
 30
0
 40
0.0833
  1
54703
 50
89.9
999
Geneva
  0
TEXT
  8
LAYER1
 62
     7
 10
2.1885
 20
4.8218
 30
0
 40
0.0833
  1
54704
 50
89.9
999
Geneva
  0
TEXT
  8
LAYER1
 62
     7
 10
2.1746
 20
5.6551
 30
0
 40
0.0833
  1
54705
 50
89.9
999
Geneva
  0
TEXT
  8
LAYER1
 62
     7
 10
2.7163
 20
2.9607
 30
0
 40
0.0833
  1
54706
 50
89.9
999
Geneva
  0
TEXT
  8
LAYER1
 62
     7
 10
2.7163
 20
3.4607
 30
0
 40
0.0833
  1
54707
 50
89.9
999
Geneva
  0
TEXT
  8
LAYER1
 62
     7
 10
2.7163
 20
4.0718
 30
0
 40
0.0833
  1
54708
 50
89.9
999
Geneva
  0
TEXT
  8
LAYER1
 62
     7
 10
2.7163
 20
4.8218
 30
0
 40
0.0833
  1
54709
 50
89.9
999
Geneva
  0
TEXT
  8
LAYER1
 62
     7
 10
2.7024
 20
5.6551
 30
0
 40
0.0833
  1
54710
 50
89.9
999
Geneva
  0
TEXT
  8
LAYER1
 62
     7
 10
2.7163
 20
6.6829
 30
0
 40
0.0833
  1
54711
 50
89.9
999
Geneva
  0
TEXT
  8
LAYER1
 62
     7
 10
3.2441
 20
3.4607
 30
0
 40
0.0833
  1
54712
 50
89.9
999
Geneva
  0
TEXT
  8
LAYER1
 62
     7
 10
3.2441
 20
4.0718
 30
0
 40
0.0833
  1
54713
 50
89.9
999
Geneva
  0
TEXT
  8
LAYER1
 62
     7
 10
3.2441
 20
4.8218
 30
0
 40
0.0833
  1
54714
 50
89.9
999
Geneva
  0
TEXT
  8
LAYER1
 62
     7
 10
3.2302
 20
5.6551
 30
0
 40
0.0833
  1
54715
 50
89.9
999
Geneva
  0
TEXT
  8
LAYER1
 62
     7
 10
3.2441
 20
6.6829
 30
0
 40
0.0833
  1
54716
 50
89.9
999
Geneva
  0
TEXT
  8
LAYER1
 62
     7
 10
3.2441
 20
7.7385
 30
0
 40
0.0833
  1
54717
 50
89.9
999
Geneva
  0
TEXT
  8
LAYER1
 62
     7
 10
3.2441
 20
8.9885
 30
0
 40
0.0833
  1
54718
 50
89.9
999
Geneva
  0
TEXT
  8
LAYER1
 62
     7
 10
3.9246
 20
4.0718
 30
0
 40
0.0833
  1
54719
 50
89.9
999
Geneva
  0
TEXT
  8
LAYER1
 62
     7
 10
3.9246
 20
4.8218
 30
0
 40
0.0833
  1
54720
 50
89.9
999
Geneva
  0
TEXT
  8
LAYER1
 62
     7
 10
3.9108
 20
5.6551
 30
0
 40
0.0833
  1
54721
 50
89.9
999
Geneva
  0
TEXT
  8
LAYER1
 62
     7
 10
3.9246
 20
6.6829
 30
0
 40
0.0833
  1
54722
 50
89.9
999
Geneva
  0
TEXT
  8
LAYER1
 62
     7
 10
3.9246
 20
7.7385
 30
0
 40
0.0833
  1
54723
 50
89.9
999
Geneva
  0
TEXT
  8
LAYER1
 62
     7
 10
3.9246
 20
8.9885
 30
0
 40
0.0833
  1
54724
 50
89.9
999
Geneva
  0
TEXT
  8
LAYER1
 62
     7
 10
4.6746
 20
4.0718
 30
0
 40
0.0833
  1
54725
 50
89.9
999
Geneva
  0
TEXT
  8
LAYER1
 62
     7
 10
4.6746
 20
4.8218
 30
0
 40
0.0833
  1
54726
 50
89.9
999
Geneva
  0
TEXT
  8
LAYER1
 62
     7
 10
4.6608
 20
5.6551
 30
0
 40
0.0833
  1
54727
 50
89.9
999
Geneva
  0
TEXT
  8
LAYER1
 62
     7
 10
4.6746
 20
6.6829
 30
0
 40
0.0833
  1
54728
 50
89.9
999
Geneva
  0
TEXT
  8
LAYER1
 62
     7
 10
4.6746
 20
7.7385
 30
0
 40
0.0833
  1
54729
 50
89.9
999
Geneva
  0
TEXT
  8
LAYER1
 62
     7
 10
4.6746
 20
8.9885
 30
0
 40
0.0833
  1
54730
 50
89.9
999
Geneva
  0
TEXT
  8
LAYER1
 62
     7
 10
5.5219
 20
5.6551
 30
0
 40
0.0833
  1
54731
 50
89.9
999
Geneva
  0
TEXT
  8
LAYER1
 62
     7
 10
5.5358
 20
6.6829
 30
0
 40
0.0833
  1
54732
 50
89.9
999
Geneva
  0
TEXT
  8
LAYER1
 62
     7
 10
5.5358
 20
7.7385
 30
0
 40
0.0833
  1
54733
 50
89.9
999
Geneva
  0
TEXT
  8
LAYER1
 62
     7
 10
5.5358
 20
8.9885
 30
0
 40
0.0833
  1
54734
 50
89.9
999
Geneva
  0
TEXT
  8
LAYER1
 62
     7
 10
1.8617
 20
0.6049
 30
0
 40
0.0833
  1
54735
 50
0
999
Geneva
  0
TEXT
  8
LAYER1
 62
     7
 10
2.3479
 20
0.6049
 30
0
 40
0.0833
  1
54736
 50
0
999
Geneva
  0
TEXT
  8
LAYER1
 62
     7
 10
2.8617
 20
0.6049
 30
0
 40
0.0833
  1
54737
 50
0
999
Geneva
  0
TEXT
  8
LAYER1
 62
     7
 10
3.459
 20
0.6049
 30
0
 40
0.0833
  1
54738
 50
0
999
Geneva
  0
TEXT
  8
LAYER1
 62
     7
 10
4.1812
 20
0.6049
 30
0
 40
0.0833
  1
54739
 50
0
999
Geneva
  0
TEXT
  8
LAYER1
 62
     7
 10
5.0284
 20
0.6049
 30
0
 40
0.0833
  1
54740
 50
0
999
Geneva
  0
TEXT
  8
LAYER1
 62
     7
 10
11.7719
 20
3.0162
 30
0
 40
0.0833
  1
54741
 50
89.9
999
Geneva
  0
TEXT
  8
LAYER1
 62
     7
 10
12.2858
 20
3.0162
 30
0
 40
0.0833
  1
54742
 50
89.9
999
Geneva
  0
TEXT
  8
LAYER1
 62
     7
 10
12.2858
 20
5.1273
 30
0
 40
0.0833
  1
54743
 50
89.9
999
Geneva
  0
TEXT
  8
LAYER1
 62
     7
 10
12.2719
 20
7.7662
 30
0
 40
0.0833
  1
54744
 50
89.9
999
Geneva
  0
TEXT
  8
LAYER1
 62
     7
 10
12.9386
 20
7.7662
 30
0
 40
0.0833
  1
54747
 50
89.9
999
Geneva
  0
TEXT
  8
LAYER1
 62
     7
 10
13.7024
 20
7.7662
 30
0
 40
0.0833
  1
54750
 50
89.9
999
Geneva
  0
TEXT
  8
LAYER1
 62
     7
 10
12.9524
 20
5.1273
 30
0
 40
0.0833
  1
54746
 50
89.9
999
Geneva
  0
TEXT
  8
LAYER1
 62
     7
 10
13.7163
 20
5.1273
 30
0
 40
0.0833
  1
54749
 50
89.9
999
Geneva
  0
TEXT
  8
LAYER1
 62
     7
 10
12.9524
 20
3.0162
 30
0
 40
0.0833
  1
54745
 50
89.9
999
Geneva
  0
TEXT
  8
LAYER1
 62
     7
 10
13.7163
 20
3.0162
 30
0
 40
0.0833
  1
54748
 50
89.9
999
Geneva
  0
TEXT
  8
LAYER1
 62
     7
 10
3.9867
 20
10.2438
 30
0
 40
0.0833
  1
Ex: (52724) 
 50
0
999
Geneva
  0
TEXT
  8
LAYER1
 62
     7
 10
2.9826
 20
10.2438
 30
0
 40
0.0833
  1
M6(24)
 50
0
999
Geneva
  0
TEXT
  8
LAYER1
 62
     7
 10
0.4312
 20
1.216
 30
0
 40
0.0833
  1
Ex: (54735) 
 50
0
999
Geneva
  0
TEXT
  8
LAYER1
 62
     7
 10
-0.57
 20
1.216
 30
0
 40
0.0833
  1
D2
 50
0
999
Geneva
  0
TEXT
  8
LAYER1
 62
     7
 10
12.2645
 20
10.1049
 30
0
 40
0.0833
  1
Ex: (52747) 
 50
0
999
Geneva
  0
TEXT
  8
LAYER1
 62
     7
 10
11.2603
 20
10.1049
 30
0
 40
0.0833
  1
M8(48)
 50
0
999
Geneva
  0
ENDBLK
  8
LAYER1
  0
ENDSEC
  0
SECTION
  2
ENTITIES
  0
INSERT
  8
LAYER1
  2
Group157
 10
0
 20
0
 30
0
  0
ENDSEC
  0
EOF
